PrimaNota.ru - самый крупный в мире бесплатный архив песенных текстов, аккордов, табулатур и нот


Бах Иоганн Себастьян - Bwv 825 Gigue Piano Partita In B Flat - таба, видео

Регистрация Запомнить меня
Войти через:  Facebook Google Twitter Vk Yandex Mail.ru

Бах Иоганн Себастьян - Bwv 825 Gigue Piano Partita In B Flat - таба, видео

Печатать
Просмотров: 153
E-|---Song:-Gigue-(BWV825)-------------------------|
A-|---Composer:-Johann-Sebastian-Bach--------------|
D-|---Transcription-by:Christian Liang-------------|
G-|---E-Mail:christian.liang@gmail.com-------------|   
B-|---http://www.classclef.com---------------------|
E-|---Enjoy!---------------------------------------|


========================================================================
         Gigue (BWV825) by Johann Sebastian Bach (1685-1750) 
========================================================================

BWV 825 Piano Partita No 1 in Bb - Gigue
transcribed by Francisco Tarrega

                                     V-------------| VII-------------
E--7-----------------------7-------|-9-----------------------9-------|
B-------5--------5------5-------5--|------5-------5------------------|
G----------------------------------|----------------------9-------9--|
D----6--------6------6--------6----|---7--------7------7-------7-----|
A----------7-----------------------|---------5-----------------------|
E------------------0---------------|-----------------9---------------|
   4 2  1  3  2  1   2  1  4  2 1    4 2  1  1  2 1  2 1  3  4  1 3


   VII-----------------------------| IV------------------------------|
E----------------------------------|-4-----------------------4-------|
B--7-----------------------7-------|------5--------5------5-------5--|
G-------8-------8-------8-------8--|---4--------4------4-------4-----|
D----7-------7-------7-------7-----|---------------------------------|
A----------------------------------|---------7-----------------------|
E----------8-------7---------------|-----------------0---------------|
   1 1  3  2 1  3  1 1  3  1 1  3    1 1  2  4  1  2   1 2   1 1  2 


   IX------------------------------|                         VI------|
E--9-------------------------------|-------------------------6-------|
B-------9--------9------9-------9--|------7--------7-------7------7--|
G----9--------9-------9-------9----|---9--------9-------9-------9----|
D----------12------11------9-------|-8-------11----------------------|
A----------------------------------|-----------------9---------------|
E----------------------------------|---------------------------------|
   1 1  1  3  1  1 2  1 1  1  1 1    2 3  1  4  3  1 2  3  1 1  4 2


   VII-----------------------------|                         IV------|
E--7-------------------------------|-------------------------4-------|
B-------7-------7--------7------7--|------5-------5-------5-------5--|
G----8--------8-------8-------8----|----7-------7-------7-------7----|
D----------11------9-------8-------|-6-------9-----------------------|
A----------------------------------|-----------------7---------------|
E----------------------------------|---------------------------------|
   1 2  1  4  2 1  3  2  1 3  2 1    2  3 1 4  3 1   2 3 1   1  4 2


   VII-----------------------------|
E--6-----------------------6-------|-7-----------------------7-------|
B-------5-------5-------5-------5--|---------------------------------|
G-----6-------6-------6-------6----|------7-------7--------7------7--|
D----------5-------4---------------|----9-------9-------9-------9----|
A----------------------------------|---------10------9---------------|
E----------------------------------|---------------------------------|
   4  2 1  4 2 1  3  2  1  4 2 1     4  2    3 2    3   2    4  2


E--9-----------------------9-------|-10----------------------10------|
B----------------------------------|------0-------0-------0-------0--|
G-------6-------6-------6------6---|---------------------------------|
D-----8-------8-------8------8-----|----8-------8-------8-------8----|
A----------10------9---------------|---------10------9---------------|
E----------------------------------|---------------------------------|
   4  3 2  1  3 4  1  3 2  4  3 2    1  3 1  4 3  1  2 3  1  1  3 1


   IV------------------------------| II-------------------|
E----------------------------------|-2-----------------------0-------|
B--6-----------------------6-------|------2-------2-------2----------|
G-------4-------4-------4-------4--|----3-------3-------3---------6--|
D-----6-------6-------6-------6----|----------------------------8----|
A----------5-------4---------------|---------------------------------|
E----------------------------------|---------3-------2---------------|
   4  3 1  2 3  1  1  3 1  4  3 1    1  2 1  3  2 1  1  2 1    3  1


        II---|
E----------------------------------|----------------2---------------||
B-------0-------0-------0--2-------|-0--------0--3-----<12>---------||
G--7----------------------------3--|-------------------------------*||
D-----8-------8-------8-------2----|-------4-----------------------*||
A----------8-------9---------------|-2---5--------------------------||
E--------------------------2-------|--------------------------------||
   1  3    2  3    4  3    1  1 2    1   4  3     2  1   4


                                     IX------------------------------|
E--11----------------------11------|-12----------------------12------|
B-----0------0-------0--------0----|------9--------9------9--------9-|
G-------11------11------11------11-|---------------------------------|
D----------7-----------------------|----9-------9------9--------9----|
A----------------------------------|---------------------------------|
E------------------7---------------|---------10------0---------------|
   4    3  1    3  1    3  4    3    4  1 1  2  1  1  1  1   4  1  1


                                     VI--------|
E--9-------0---------------9-------|-8-----------------------8-------|
B-------8-------8-------8-------8--|------7-------7-------7-------7--|
G------------------8---------------|---------6-------8----------8----|
D----7-------7--------7-------7----|---6--------7-------10-----------|
A----------------------------------|---------------------------------|
E----------------------------------|---------------------------------|
   4 1  3    1  3  2 1  3  4  1 3    4 1  3  1 2  3  2  4 1  3  2 1


   IX---------------------------|
E--9-----------------------9-------|-11----------------------11------|
B-------9-------9-------9-------9--|-------9-------9-------9-------9-|
G-----9-------9-------9-------9----|---------------------------------|
D----------------------------------|----10------10------10------10---|
A----------12------11--------------|---------12------11--------------|
E----------------------------------|---------------------------------|
   1  1 1  4  1 1  3  1 1  1  1 1    4   2 1  4 2  1 3  2  1 4  2  1


E--12----------------------12------|-14----------------------14------|
B-------9--------9-------9-------9-|-------9-------9-------9-------9-|
G----------------------------------|---------------------------------|
D----11-------11------11------11---|----10------10------10------10---|
A----------12------11--------------|---------12------11--------------|
E----------------------------------|---------------------------------|
   4 2  1  3  2  1 2  3  1 4  2  1   4  2  1 3  2  1 3  2  1 4  2  1


                   IX---|  VI---|    VII---| IX---|          VII---|
E--12--------------9------------6--|-----8--------9-------11------8--|
B--------9-13----------9---8-------|-9--------------------------7----|
G---------------11---9--------6----|---8--------9-------11-----------|
D-----11-----13--------------------|---------11------10------7-------|
A----------------------------------|---------------------------------|
E----------------------------------|---------------------------------|
   4   2 1 4  3 2  1 1 1   3  1 1    2 1 1   3  1 1  2  3 4  1  1 2


   VI----| V-----| VI----| IV------|  IX-----------------------------|
E-------9-------6-------8-------8--|------9-------9-------9-------9--|
B----6--------5---------------7----|----------------------------9----|
G---------------------8------------|----9-------9-------9----9-------|
D--6-------5-------6---------------|-----------------11--------------|
A----------------------------------|---------11----------------------|
E--------------------------4-------|--9------------------------------|
   1  1  4  1  1 2  1  3 4  1  3 4     1 1 1  3  1 1  4  1 1  1 1  1


   VII-----------------------------|
E-------7-------7------7--------7--|---------0-------9---------------|
B------------------5-------9-------|------10------10-----10-------10-|
G-----7-------7------7--------7----|---------------------------------|
D--6-------9-----------------------|----11-------------11-------11---|
A----------------------------------|<12>-------12------------11------|
E----------------------------------|---------------------------------|
   1  2 3  4  2 3  1 2 3   4  2 3     4 3 2     4 2  1 3 2    4 3 2


E--------------------------6-------|-7---------------7---------------|
B------10-------10------9-------8--|------7-------7-------7-------7--|
G----8--------8-------9-------9----|----8-------8-------8-------8----|
D----------9-----------------------|---------9---------------9-------|
A--9---------------7---------------|---------------------------------|
E----------------------------------|---------------------------------|
   3 2 4   3  2 4  1  3 4  1  2 3    1  2 1  3  2 1  1  2 1  3  2 1


E--5---------------5---------------|-4---------------4---------------|
B-------7-------7-------7-------7--|-----6--------6-------6-------6--|
G-----8-------8-------8-------8----|---7--------7-------7-------7----|
D----------9---------------9-------|---------9---------------9-------|
A----------------------------------|---------------------------------|
E----------------------------------|---------------------------------|
   1  3 2  4  3 2  1  3 2  4  3 2    1  3 2  4  3 2  1  3 2  4  3 2


E--3---------------3---------------|-2---------------2---------------|
B-------5-------5-------5-------5--|------4-------4-------4-------4--|
G-----6-------6-------6-------6----|----5-------5-------5-------5----|
D----------8---------------8-------|---------7---------------7-------|
A----------------------------------|---------------------------------|
E----------------------------------|---------------------------------|
   1  3 2  4  3 2  1  3 2  4  3 2    1  3 2  4  3 2  1  3 2  4  3 2


                                     V-------------------------------|
E--1---------------1---------------|---------------------------------|
B-------3-------3-------3-------3--|-5--------------------5--5-------|
G-----4-------4-------4-------4----|------6-------6-----6---------6--|
D----------6---------------6-------|----8-------8----5----------8----|
A----------------------------------|---------7-----------------------|
E----------------------------------|---------------------------------|
   1  3 2  4  3 2  1  3 2  4  3 2    1  4 2  3  4 2  1  2 1  1  4 2


   IV------------------------------| III-----------------------------|
E----------------------------------|---------------------------------|
B--4--------------------4--4-------|-3--------------------3--3-------|
G-------5-------5-----5---------5--|------4-------4-----4---------4--|
D-----7-------7----4----------7----|----6-------6----3----------6----|
A----------6-----------------------|---------5-----------------------|
E----------------------------------|---------------------------------|


   II------------------------------| II------------------------------|
E----------------------------------|---------------------------------|
B--2--------------------2--2-------|-4-----------------------4-------|
G-------3-------3-----3---------3--|------2-------2-------2-------2--|
D-----5-------5----2----------5----|----4-------4-------4-------4----|
A----------4-----------------------|---------3-------2---------------|
E----------------------------------|---------------------------------|
   1  4 2  3  4 2  1  2 1  1  4 2    4  3 1  2  3 1  1  3 1  4  3 1


   III-----------------------------| VII-----------------------------|
E----------------------------------|---------------------------------|
B--5-----------------------5-------|-7-----------------------7-------|
G-------4-------4-------4-------4--|------8-------8-------8-------8--|
D-----5-------5-------5-------5----|----7-------7-------7-------7----|
A----------3-------2---------------|---------------------------------|
E----------------------------------|---------8-------7---------------|
   4  3 2  1  3 2  1  3 2  4  3 2    1 1 3  2  1  3  1 1 3  1  1  3


   IX------------------------------| VII-----------------------------|
E-------0-------0-------0-------0--|---------------------------------|
B--8-----------------------8-------|-11----------------------11------|
G-----8-------8-------8-------8----|------9-------9-------9-------9--|
D----------------------------------|---11------11------11------11----|
A----------------------------------|---------10------9---------------|
E----------8-------7---------------|---------------------------------|
   4  3    2  3    1  3    4  3      4  3 1  2 3  1  1 3  1  4  3 1


                           VII-----|
E--7-------------------------------|------0-------0-------0----------|
B-------7-------7-------7--10------|-8-----------------------7-------|
G-----8-------8-------8---------8--|----8-------8-------8---------8--|
D----------10------9----------7----|---------8-------9----------7----|
A----------------------------------|---------------------------------|
E----------------------------------|-------------------------7-------|
   1  2 1  4 2  1  3  2 1  4  1 2    1  2    3 2    3  2     1  1 2


E--0----------4-7--<12>------------||
B----------5-----------------------||
G-------4--------------------------||
D----6-----------------------------||
A----------------------------------||
E--0-------------------------------||
     3  1  2  1 4    4

Добавлено: 24.07.2012
Другие материалы по этой песне:
  • Аккорды и текст

Страница создана 24.07.2012
http://primanota.ru/johann-sebastian-bach/bwv-825-gigue-piano-partita-in-b-flat-chords.htm
Привет, Гость.
Предлагаем пройти революционный курс по гитаре.
Подарок от PrimaNota.Ru, забирай!