PrimaNota.ru - самый крупный в мире бесплатный архив песенных текстов, аккордов, табулатур и нот


Бах Иоганн Себастьян - Bwv 805 - Duetto Iv In A Minor - таба, видео

Регистрация Запомнить меня
Войти через:  Facebook Google Twitter Vk Yandex Mail.ru

Бах Иоганн Себастьян - Bwv 805 - Duetto Iv In A Minor - таба, видео

Печатать
Просмотров: 106
                                        JOHANN SEBASTIAN BACH
                                   BWV 805 - Duetto IV In A Minor
                                            Time: 2/2



Harpsichord LH - transcribed for guitar


E||----------------------|------------------------|-------------------------|
B||----------------------|--1------L--------------|-------------------------|
G||-----------2------L---|------------------------|-------------------------|
D||----------------------|-------------2------L---|--3--2--0------L---2--4--|
A||----------------------|------------------------|-------------------------|
E||----------------------|------------------------|-------------------------|


-------------------------|--------------------------|--------------------------|
-------------------------|-----------0-----------1--|--0-----0--1--0-----0--3--|
--0--2--3------L---2--1--|--2-----2-----2-----2-----|--------------------------|
-------------------------|-----2-----------2--------|-----2-----------2--------|
-------------------------|--------------------------|--------------------------|
-------------------------|--------------------------|--------------------------|


-----------------------0--|--------------------------|
--1-----1--3--1-----1-----|--0-----0--1--0-----0--3--|
--------------------------|--------------------------|
-----2-----------2--------|-----2-----------2--------|
--------------------------|--------------------------|
--------------------------|--------------------------|


---------------------------|--------------------------|
--1--0---------------------|-----1--0--3--1--0--1-----|
--------2------L---1---L---|--2--------------------2--|
---------------------------|--------------------------|
---------------------------|--------------------------|
---------------------------|--------------------------|


--------------------------------|---------------------------|
--------------------------------|---------------------------|
------------------0---L---------|----------1---L---2--------|
--2---L---4---L-----------4--2--|--4---L--------------------|
--------------------------------|---------------------------|
--------------------------------|---------------------------|


---------------------------|-------------------------------|
---------------------------|-------------------------------|
--L---L---0-----0----------|-------------------------------|
-------------4--------2----|--L---L---1-----2p1h2p1--------|
---------------------------|-------------4-----------------|
---------------------------|-------------------------------|

  
--------------0--------|--L------L---0---0----------|--0-----------------------|
--------0--------------|---------------4---4--------|--------------------------|
-----------------------|----------------------------|--------------0--2--3--0--|
--2--------------------|----------------------------|--------2--4--------------|
-----------------------|----------------------------|--------------------------|
-----------------------|----------------------------|--------------------------|


---------------------------|---------------------------|
---------------------------|---------------------------|
--------0----L-------------|---------------------------|
--2--3------------3--2--0--|-----0--2----L----0--------|
---------------------------|--4------------------4--2--|
---------------------------|---------------------------|

 
--------------------------|--------------------------|
--------------------------|--------------------------|
--------------------0-----|-----------------0--1-----|
-----------0--2--3-----2--|--3--2--0--2--3--------3--|
--4--0--4-----------------|--------------------------|
--------------------------|--------------------------|


---------------------------|---------------------------|
---------------------------|---------------------------|
---------------------------|---------------------------|
--0--2--3----L----2--0-----|--------0----L-------------|
------------------------3--|--2--3------------3--2--0--|
---------------------------|---------------------------|


--------------------------|--------------------------|
--------------------------|--------------------------|
--------------------------|--------------------0-----|
--------------0--2--3--0--|--2--0-----0--2--3-----2--|
--2-----2--3--------------|--------3-----------------|
-----3--------------------|--------------------------|


----------------------------|------------------------------|
----------------------------|------------------------------|
--------2-------------------|------------------------------|
--3-----------0-----3---L---|-------------0--2-------------|
----------------------------|--2---L---3-----------3---L---|
----------------------------|------------------------------|


----------------------------|------------------------------|
----------------------------|------------------------------|
----------------------------|------------------------------|
--0-----3-----------0---L---|------------------------------|
--------------2-------------|----------0--2--3-----0---L---|
----------------------------|--3---L-----------------------|


----------------------------|------------------------------|
----------------------------|------------------------------|
----------------------------|------------------------------|
--------0-------------------|------------------------------|
--2-----------------2---L---|----------------0-----2---L---|
--------------4-------------|--0---L---2--4----------------|


------------------------|------------------------|---------------------------|
------------------------|------------------------|---------------------------|
------------------------|------------------------|---------------------------|
------------------------|------------------------|---------------------------|
--3------L--------------|------------------------|--0-----0------L-----------|
-------------0------L---|--1--0---------0--2--4--|-----0-------------4---L---|

  
--------------------------------|---------------------------|
--------------------------------|---------------------------|
--------------------------------|---------------------------|
--------------------------------|------------------0--------|
--0---L---2---L---3---L---2--0--|--2---L---4---L------------|
--------------------------------|---------------------------|


---------------------------|-------------------------------|
---------------------------|-------------------------------|
---------------------------|-------------------------------|
--L---L--------------------|-------------------------------|
----------3--2--3-----0----|--L---L---------0---0----------|
---------------------------|----------4--2----4---4--------|

 
-----------------------|----------------------------|------------------------|
-----------------------|----------------------------|------------------------|
--------------2--------|--L------L---2p1h2p1--------|--2------L--------------|
--------2--------------|----------------------------|-------------2------L---|
--0--------------------|----------------------------|------------------------|
-----------------------|----------------------------|------------------------|

 
------------------------|-------------------------|-------------------------|
------------------------|-------------------------|-------------------------|
------------------------|-------------------------|-------------------------|
--3------L--------------|-------------------------|--0--2--3------L---2--1--|
-------------0------L---|--3--2--0------L---2--4--|-------------------------|
------------------------|-------------------------|-------------------------|


--------------------------|--------------------------|
--------------------------|--------------------------|
-----------------------0--|-----------0-----------2--|
--2-----2--4--2-----2-----|--4-----4-----4-----4-----|
-----2-----------2--------|-----2-----------2--------|
--------------------------|--------------------------|


--------------------------|--------------------------|
-----------------------0--|--------------------------|
--0-----0--2--0-----0-----|-----------0-----------2--|
--------------------------|--4-----4-----4-----4-----|
-----2-----------2--------|-----2-----------2--------|
--------------------------|--------------------------|


---------------------------|--------1---L---1p0h1p0--L---------|
---------------------------|---------------------------3---L---|
--0------------------------|--1--------------------------------|
-----4--2------L---4---L---|-----------------------------------|
---------------------------|-----------------------------------|
---------------------------|-----------------------------------|


-----------------------------------|-----------------------------------|
--------3---L---3p1h3p1--L-0---L---|--------0---L---0---0--------------|
-----------------------------------|------------------2---2--L-1---L---|
--3--------------------------------|--0--------------------------------|
-----------------------------------|-----------------------------------|
-----------------------------------|-----------------------------------|


----------------------------|-----------------------------------|
----------------------------|--------4---L---4-3-4-3--L-1---L---|
--2-----------------0---L---|-----------------------------------|
-----0----------------------|--4--------------------------------|
--------3--2--0-------------|-----------------------------------|
----------------------------|-----------------------------------|


-----------------------------------|-----------------------------------|
--------1---L---1-0-1-0--L---------|-----------------------------------|
---------------------------2---L---|--------2---L---2-0-2-0--L---------|
--1--------------------------------|---------------------------4---L---|
-----------------------------------|--3--------------------------------|
-----------------------------------|-----------------------------------|

  
----------------------------|-------------------------|
----------------------------|-----3--1--0--1----------|
--0-------------------------|-----------------2-------|
--------------------3---L---|--2-----------------2----|
-----3--2--0----------------|-------------------------|
--------------3-------------|-------------------------|


----------------------------|-------------------------|
--------------------0---L---|-----0-------------------|
-----------------0----------|--------2--0--2----------|
--L--0--2--4--0-------------|-----------------4-------|
----------------------------|--3-----------------3----|
----------------------------|-------------------------|


----------------------------|-------------------------|
----------------------------|-------------------------|
--------------------0---L---|-----0-------------------|
-----------0-----0----------|--------4--2--4--1-------|
--L--2--3-----2-------------|--0-----------------0----|
----------------------------|-------------------------|


--------------------------|--------------------------|
--------------------------|--------------------------|
-----------------------0--|-----------0-----------2--|
--------------------2-----|--4-----4-----4-----4-----|
--L-----0--2-----2--------|-----1-----------2--------|
-----3--------3-----------|--------------------------|


--------------------------|--------------------------|
--------------0--------0--|-----------------------1--|
--1-----1--3--------0-----|--2-----2--3--2-----2-----|
-----2-----------0--------|-----------------0--------|
--------------------------|-----4--------------------|
--------------------------|--------------------------|


--------------------------|--------------------------|
--0-----0--2--3--------3--|--1-----1--3--1--------1--|
-----0--------------3-----|--------------------2-----|
-----------------3--------|-----2-----------3--------|
--------------------------|--------------------------|
--------------------------|--------------------------|


--------------------------|-----------0--------------|
--0-----0--1--0-----0--3--|--1-----1-----1-----0-----|
--------------------------|-----2-----------2-----1--|
-----0-----------2--------|--------------------------|
--------------------------|--------------------------|
--------------------------|--------------------------|


--------------------------|--------------------------------|
-----1--0--3--1--0--1-----|--------------------------------|
--2--------------------2--|------------------0---L---------|
--------------------------|--2---L---4---L-----------4--2--|
--------------------------|--------------------------------|
--------------------------|--------------------------------|


---------------------------|---------------------------|
---------------------------|---------------------------|
----------1---L---2--------|--L---L---0-----0----------|
--4---L--------------------|-------------4--------2----|
---------------------------|---------------------------|
---------------------------|---------------------------|


-------------------------------|--------------0--------|
-------------------------------|--------0--------------|
-------------------------------|-----------------------|
--L---L---1-----2-1-2-1--------|--2--------------------|
-------------4-----------------|-----------------------|
-------------------------------|-----------------------|


--L------L------------------|--0------L----------------|
-------------5-4-5-4--------|------------------3---L---|
----------------------------|--------------------------|
----------------------------|--------------------------|
----------------------------|--------------------------|
----------------------------|--------------------------|


--------6---L---6-5-6-5--L-3---L---|--------3---L---3-1-3-1--L-0---L---|
--2--------------------------------|-----------------------------------|
-----------------------------------|--3--------------------------------|
-----------------------------------|-----------------------------------|
-----------------------------------|-----------------------------------|
-----------------------------------|-----------------------------------|


--------0---L---0---0--------------|-----------0--1--3--4--1--|
------------------3---3--L-2---L---|--3-----3-----------------|
--0--------------------------------|-----2--------------------|
-----------------------------------|--------------------------|
-----------------------------------|--------------------------|
-----------------------------------|--------------------------|


-----0--1----L----0--------|---------------------------|
--3------------------3--1--|--0--1--3----L----1--0-----|
---------------------------|------------------------2--|
---------------------------|---------------------------|
---------------------------|---------------------------|
---------------------------|---------------------------|

        
-----------------0--1-----|--0-------------------|-------------------------|
--0-----0--1--3--------3--|----------------------|-------------------------|
-----0--------------------|-------------2--------|--L---L---0-----0--------|
--------------------------|-------2--------------|-------------4-----------|
--------------------------|----------------------|-------------------------|
--------------------------|----------------------|-------------------------|

      
-------------------------|-------------------------|----------------------|
-------------0--1--------|--L---L------------------|-------1--3--4--------|
--L---L---2--------------|----------3--2--3--------|--L-------------------|
-------------------------|-------------------------|----------------------|
-------------------------|-------------------------|----------------------|
-------------------------|-------------------------|----------------------|


----------------------|----------------------------|
--L----3--2--3--------|--L------L---3-2-3-2--------|
----------------------|----------------------------|
----------------------|----------------------------|
----------------------|----------------------------|
----------------------|----------------------------|


----------0---L---1---L-----------|--0-----------------------------|
--3---L-------------------3---L---|--------3---L---1---L---0---L---|
----------------------------------|--------------------------------|
----------------------------------|--------------------------------|
----------------------------------|--------------------------------|
----------------------------------|--------------------------------|


------------------------------|------------------------|
------------------------------|-------------0------L---|
--2-----2------L---2-1-2-1--L-|--2------L--------------|
-----2------------------------|------------------------|
------------------------------|------------------------|
------------------------------|------------------------|

 
------------------------|-------------------------|-----------------------|
--1------L--------------|-------------------------|-----------------------|
------------------------|-------------------------|--0--2--3--------2--1--|
-------------2------L---|--3--2--0------L---2--4--|-----------------------|
------------------------|-------------------------|-----------------------|
------------------------|-------------------------|-----------------------|


--------------------------|--------------------------|
-----------0-----------1--|--0-----0--1--0-----0--3--|
--2-----2-----2-----2-----|--------------------------|
-----2-----------2--------|-----2-----------2--------|
--------------------------|--------------------------|
--------------------------|--------------------------|


-----------------------0--|--------------------------|
--1-----1--3--1-----1-----|--0-----0--1--0-----0--3--|
--------------------------|--------------------------|
-----2-----------2--------|-----2-----------2--------|
--------------------------|--------------------------|
--------------------------|--------------------------|


-----------------0--1--3--|--1--0---------------------|
--1-----0--2--3-----------|--------3--2--3---L--------|
-----2--------------------|---------------------------|
--------------------------|----------------------0----|
--------------------------|---------------------------|
--------------------------|---------------------------|


--------------------------------|----------------------------------|
--------------------------------|----------------------------------|
--------------------------------|----------------------------------|
--L---L-----------------0---L---|--2---L---0---L---2---L-----------|
----------3--2--3---L-----------|----------------------------------|
--------------------------------|--------------------------0---L---|


---------------------||
---------------------||
---------------------||
---------------------||
--0------------L-----||
---------------------||










Harpsichord RH - transcribed for guitar


E||-------------------|-------------------|-------------------|
B||-------------------|-------------------|-------------------|
G||-------------------|-------------------|-------------------|
D||-------------------|-------------------|-------------------|
A||-------------------|-------------------|-------------------|
E||-------------------|-------------------|-------------------|

               
-------------------|-------------------|-------------------|-------------------|
-------------------|-------------------|-------------------|-------------------|
-------------------|-------------------|-------------------|-------------------|
-------------------|-------------------|-------------------|-------------------|
-------------------|-------------------|-------------------|-------------------|
-------------------|-------------------|-------------------|-------------------|

 
-------------------|-----------12------L---|--13------L---------------|
-------------------|-----------------------|--------------------------|
-------------------|-----------------------|--------------14------L---|
-------------------|-----------------------|--------------------------|
-------------------|-----------------------|--------------------------|
-------------------|-----------------------|--------------------------|


------------------------------|--10--12--13------L---12--11--|
--13--12----------L---12--14--|------------------------------|
----------14------L-----------|------------------------------|
------------------------------|------------------------------|
------------------------------|------------------------------|
------------------------------|------------------------------|


--12------12--14--12------12--15--|--14------14--15--14------14--17--|
------12--------------12----------|------12--------------12----------|
----------------------------------|----------------------------------|
----------------------------------|----------------------------------|
----------------------------------|----------------------------------|
----------------------------------|----------------------------------|


--15------15--17--15------15--19--|----------14--15--14------14--17--|
----------------------------------|--19------------------12----------|
------16--------------16----------|------16--------------------------|
----------------------------------|----------------------------------|
----------------------------------|----------------------------------|
----------------------------------|----------------------------------|


--15--14--12------L------------|---------18---L---18p17h18p17--L-15---L---|
----------------------15---L---|--14--------------------------------------|
-------------------------------|------------------------------------------|
-------------------------------|------------------------------------------|
-------------------------------|------------------------------------------|
-------------------------------|------------------------------------------|


---------15---L---15p13h15p13--L-12---L---|
------------------------------------------|
--15--------------------------------------|
------------------------------------------|
------------------------------------------|
------------------------------------------|

   
---------12---L---12-10-12-10--L-9---L---|--10--------------------------|
-----------------------------------------|------------------------13----|
--12-------------------------------------|------12--10--9---------------|
-----------------------------------------|-----------------12-----------|
-----------------------------------------|------------------------------|
-----------------------------------------|------------------------------|


---------16---L---16-15-16-15--L-13---L---|
------------------------------------------|
--16--------------------------------------|
------------------------------------------|
------------------------------------------|
------------------------------------------|


---------13---L---13-12-13-12--L-10---L---|
------------------------------------------|
--13--------------------------------------|
------------------------------------------|
------------------------------------------|
------------------------------------------|


---------10---L---10-8-10-8--L-7---L---|--8-----------------6---L---|
---------------------------------------|-----6--5--3----------------|
--10-----------------------------------|--------------5-------------|
---------------------------------------|----------------------------|
---------------------------------------|----------------------------|
---------------------------------------|----------------------------|


------15--13--12--13--10--------|------------7-----8--12---L---|
--------------------------10----|--L--8--10-----8--------------|
--14----------------------------|------------------------------|
--------------------------------|------------------------------|
--------------------------------|------------------------------|
--------------------------------|------------------------------|


------12--10--8--10------------|---------------------8---L---|
---------------------12--------|------------8-----8----------|
--10---------------------10----|--L--9--10-----9-------------|
-------------------------------|-----------------------------|
-------------------------------|-----------------------------|
-------------------------------|-----------------------------|


-----8--7--5--7----------|-------------------------------|
-----------------9-------|--L----------------------------|
--7-----------------7----|-------------9------10--9------|
-------------------------|-----10--12-----10---------12--|
-------------------------|-------------------------------|
-------------------------|-------------------------------|


--------------------------------|--------------------------|
--------------------------------|--------------10------L---|
--------------------------------|--------------------------|
--14---L------------------------|--------------------------|
-----------12------L---11---L---|--12------L---------------|
--------------------------------|--------------------------|


--------------------------|----------------------------|
--13------L---------------|-------------------------7--|
--------------------------|----------------------9-----|
--------------14------L---|--15--14--12------L---------|
--------------------------|----------------------------|
--------------------------|----------------------------|


-----5--6------L---5--4--|--5-----5--7--5-----5--8--|
--8----------------------|-----5-----------5--------|
-------------------------|--------------------------|
-------------------------|--------------------------|
-------------------------|--------------------------|
-------------------------|--------------------------|


--7-----7--8--7-----7--10--|--8-----8--10--8-----8--12--|
-----5-----------5---------|----------------------------|
---------------------------|-----9------------9---------|
---------------------------|----------------------------|
---------------------------|----------------------------|
---------------------------|----------------------------|


------------------------------10--|--8--7----------------------|
--12------12--13--12------12------|--------10------L---9---L---|
----------------------------------|----------------------------|
------14--------------14----------|----------------------------|
----------------------------------|----------------------------|
----------------------------------|----------------------------|


------8--7--10--8--7--8------|----------------------------------|
--10---------------------10--|-------------------8---L----------|
-----------------------------|--9---L---11---L-----------11--9--|
-----------------------------|----------------------------------|
-----------------------------|----------------------------------|
-----------------------------|----------------------------------|


-----------------------------|---------------------------|
-----------9---L---10--------|--L---L---8--7--8----------|
--11---L---------------------|----------------------9----|
-----------------------------|---------------------------|
-----------------------------|---------------------------|
-----------------------------|---------------------------|


--------------------------------|----------------12--------|
--------------------------------|---------12---------------|
--L---L---8------9-8-9-8--------|--------------------------|
-------------11-----------------|--14----------------------|
--------------------------------|--------------------------|
--------------------------------|--------------------------|

 
--L------L---12-11-12-11--------|--12----L----10-12-13--12--10--8--|
--------------------------------|----------------------------------|
--------------------------------|----------------------------------|
--------------------------------|----------------------------------|
--------------------------------|----------------------------------|
--------------------------------|----------------------------------|


------8--10----L----8----------|-------------------------------|
--12-------------------12--10--|--9--10--12----L----10--9------|
-------------------------------|---------------------------11--|
-------------------------------|-------------------------------|
-------------------------------|-------------------------------|
-------------------------------|-------------------------------|


-------------------8--10------|----------------------10--11------|
--9-----9--10--12---------12--|--13--12--10--12--13----------13--|
-----9------------------------|----------------------------------|
------------------------------|----------------------------------|
------------------------------|----------------------------------|
------------------------------|----------------------------------|


---------------------------------|--------------------------------|
--10--12--13----L----12--10------|----------10----L---------------|
-----------------------------12--|--11--12-------------12--11--9--|
---------------------------------|--------------------------------|
---------------------------------|--------------------------------|
---------------------------------|--------------------------------|


----------------------------------|--------------------------10------|
------------------10--12--13--10--|--12--10------10--12--13------12--|
--11------11--12------------------|----------12----------------------|
------12--------------------------|----------------------------------|
----------------------------------|----------------------------------|
----------------------------------|----------------------------------|


---------12---------------------|-----------------------------------|
--13------------10-----13---L---|---------------10--12--------------|
--------------------------------|--11---L---12-------------12---L---|
--------------------------------|-----------------------------------|
--------------------------------|-----------------------------------|
--------------------------------|-----------------------------------|


---------8---------------------|-----------------------------------|
--10------------------10---L---|-----------------------------------|
---------------11--------------|---------------11--12--------------|
-------------------------------|--12---L---14-------------14---L---|
-------------------------------|-----------------------------------|
-------------------------------|-----------------------------------|


------------------------------|-------------------------|
---------10-----------7---L---|----------2--4--5--------|
--11------------8-------------|--4---L------------------|
------------------------------|-------------------------|
------------------------------|-------------------------|
------------------------------|-------------------------|

      
------L------------------|----------0--2--3--------|--L---L---1--0--1--------|
--L-------3--2--3--------|--L---L------------------|-------------------------|
-------------------------|-------------------------|-------------------------|
-------------------------|-------------------------|-------------------------|
-------------------------|-------------------------|-------------------------|
-------------------------|-------------------------|-------------------------|


--L---L---3--5--6--------|--L---L---5--4--5--------|
-------------------------|-------------------------|
-------------------------|-------------------------|
-------------------------|-------------------------|
-------------------------|-------------------------|
-------------------------|-------------------------|


--L------L---5p4h5p4--------|--------------12------L---|
----------------------------|--10------L---------------|
----------------------------|--------------------------|
----------------------------|--------------------------|
----------------------------|--------------------------|
----------------------------|--------------------------|


--13------L---------------|--------------------------9--|
--------------------------|--13--12--10------L---12-----|
--------------14------L---|-----------------------------|
--------------------------|-----------------------------|
--------------------------|-----------------------------|
--------------------------|-----------------------------|


--10--12--13------L---12--11--|--12------12--14--12------12--15--|
------------------------------|------12--------------12----------|
------------------------------|----------------------------------|
------------------------------|----------------------------------|
------------------------------|----------------------------------|
------------------------------|----------------------------------|

 
--14------14--15--14------14--17--|--15------15--17--15------15--19--|
------12--------------12----------|----------------------------------|
----------------------------------|------16--------------16----------|
----------------------------------|----------------------------------|
----------------------------------|----------------------------------|
----------------------------------|----------------------------------|


----------14--15--14------14--17--|--15----------14--15--17--18--15--|
--19------------------------------|----------17----------------------|
------16--------------16----------|------16--------------------------|
----------------------------------|----------------------------------|
----------------------------------|----------------------------------|
----------------------------------|----------------------------------|


----------15----L----13--12--10--|--9--10--12----L----10--9------|
--17--18-------------------------|---------------------------12--|
---------------------------------|-------------------------------|
---------------------------------|-------------------------------|
---------------------------------|-------------------------------|
---------------------------------|-------------------------------|


--9------9--10--12--13--15--12--|--13--12--10--9--10--------------|
-----10-------------------------|------------------------13---L---|
--------------------------------|---------------------------------|
--------------------------------|---------------------------------|
--------------------------------|---------------------------------|
--------------------------------|---------------------------------|


---------16---L---16p15h16p15--L-13---L---|
------------------------------------------|
--16--------------------------------------|
------------------------------------------|
------------------------------------------|
------------------------------------------|


---------13---L---13p12h13p12--L-10---L---|
------------------------------------------|
--13--------------------------------------|
------------------------------------------|
------------------------------------------|
------------------------------------------|


---------10---L---10-8-10-8--L----------|--8-----8--10--8----------8--|
-------------------------------12---L---|-----8----------------10-----|
--10------------------------------------|------------------11---------|
----------------------------------------|-----------------------------|
----------------------------------------|-----------------------------|
----------------------------------------|-----------------------------|


--7-----7--8--7-----7--10--|--9------9--11--12----------12--|
---------------------------|-----10-----------------13------|
-----8-----------9---------|--------------------12----------|
---------------------------|--------------------------------|
---------------------------|--------------------------------|
---------------------------|--------------------------------|


--10------10--11--10-----10--13--|--12------12--14--15----------15--|
----------------------8----------|------13------------------16------|
------11-------------------------|----------------------15----------|
---------------------------------|----------------------------------|
---------------------------------|----------------------------------|
---------------------------------|----------------------------------|

 
--13------13--15--13----------13--|--12------12--13--12------12--15--|
--------------------------15------|----------------------10----------|
------14--------------15----------|------13--------------------------|
----------------------------------|----------------------------------|
----------------------------------|----------------------------------|
----------------------------------|----------------------------------|


--13--15--13--12--10--------------|----------------------------------|
----------------------13--12--10--|------------------10------10--12--|
----------------------------------|--13------11--13------13----------|
----------------------------------|------14--------------------------|
----------------------------------|----------------------------------|
----------------------------------|----------------------------------|


-------------------------|-------------------------------|
--13------L--------------|----------------------------9--|
--------------9------L---|--10--9--------------9--11-----|
-------------------------|---------12--11--12------------|
-------------------------|-------------------------------|
-------------------------|-------------------------------|


-----------------------------|--------------------8---L-----------|
--10-----10------L---9---L---|--10---L---12---L-----------12--10--|
------9----------------------|------------------------------------|
-----------------------------|------------------------------------|
-----------------------------|------------------------------------|
-----------------------------|------------------------------------|


-----------9---L---10--------|--L---L---8--7--8-----5----|
--12---L---------------------|---------------------------|
-----------------------------|---------------------------|
-----------------------------|---------------------------|
-----------------------------|---------------------------|
-----------------------------|---------------------------|


--L---L---4--2--5p4h5p4--------|----------------17--------|
-------------------------------|---------17---------------|
-------------------------------|--14----------------------|
-------------------------------|--------------------------|
-------------------------------|--------------------------|
-------------------------------|--------------------------|


--L------L---17p16h17p16--------|--17--15--13------------------|
--------------------------------|------------------17--15--14--|
--------------------------------|------------------------------|
--------------------------------|------------------------------|
--------------------------------|------------------------------|
--------------------------------|------------------------------|


------------------------------|--------------------12---L---13---L---|
--15--13----------------------|--------------------------------------|
----------15------14--13--11--|--13---L------------------------------|
------------------------------|-----------14---L---------------------|
------------------------------|--------------------------------------|
------------------------------|--------------------------------------|


--10-------------------------------------------------------------|
------13----L----13p12p10-12h13p12h13p12h13p12h13p12h13p12p10-12-|
-----------------------------------------------------------------|
-----------------------------------------------------------------|
-----------------------------------------------------------------|
-----------------------------------------------------------------|


----------------------||
--10------------L-----||
----------------------||
----------------------||
----------------------||
----------------------||
Добавлено: 25.06.2012
Другие материалы по этой песне:

Страница создана 06.04.2012
http://primanota.ru/johann-sebastian-bach/bwv-805-duetto-iv-in-a-minor-chords.htm
Привет, Гость.
Предлагаем пройти революционный курс по гитаре.
Подарок от PrimaNota.Ru, забирай!