PrimaNota.ru - самый крупный в мире бесплатный архив песенных текстов, аккордов, табулатур и нот


Бах Иоганн Себастьян - Bwv 804 - Duetto Iii In G Major - таба, видео

Регистрация Запомнить меня
Войти через:  Facebook Google Twitter Vk Yandex Mail.ru

Бах Иоганн Себастьян - Bwv 804 - Duetto Iii In G Major - таба, видео

Печатать
Просмотров: 102
                                        JOHANN SEBASTIAN BACH
                                   BWV 804 - Duetto III In G Major
                                            Time: 12/8





Harpsichord RH - transcribed for guitar

 
E||-----------------7---5----------------8---|
B||---------8-7-5----------------8-7-5-------|
G||---------------7--------------------7-----|
D||------------------------------------------|
A||------------------------------------------|
E||------------------------------------------|


--7--------10----------12----10----------------------------------|
--------------12-10-------13----12-10----13-10-13-12-10----10----|
--------------------12----------------12----------------12----11-|
-----------------------------------------------------------------|
-----------------------------------------------------------------|
-----------------------------------------------------------------|


----------------------10----------------------------10-12-15-14-12-------|
----------------10-12----13-12-13-10-12----10-12-13----------------15-14-|
--12----9-11-12-------------------------12-------------------------------|
-----12------------------------------------------------------------------|
-------------------------------------------------------------------------|
-------------------------------------------------------------------------|


--17-------14-15-17-19-17-15-14-15-------17-15-14-------------12-14-15--|
-----15-17-------------------------17-19----------17-15-14-15-----------|
------------------------------------------------------------------------|
------------------------------------------------------------------------|
------------------------------------------------------------------------|
------------------------------------------------------------------------|


--L-12-14---------------13----L-10-12---------------12----|
----------15-14-15--------------------13-12-13------------|
-------------------12--------------------------11---------|
----------------------------------------------------------|
----------------------------------------------------------|
----------------------------------------------------------|


--L----10----------------------------------------------------------------|
----13----12-10-12----12-13-10----10----10-12----------------------------|
-------------------------------12-------------12-11-12----12-14-11----11-|
-------------------14----------------12----------------10----------14----|
-------------------------------------------------------------------------|
-------------------------------------------------------------------------|


-----------------------10----------------------------------17-15-14-------|
--------------------12----13-12----------------12-13-15-17----------17-15-|
-----------11-12-14-------------14-12-11-12-14----------------------------|
-----12-14----------------------------------------------------------------|
--14----------------------------------------------------------------------|
--------------------------------------------------------------------------|

 
--15----------15-17-19-------------17----15-14-15-----------------------|
-----15-17-19----------20-19-20----------------------13----------12-13--|
--------------------------------17----16----------14----11-12-14--------|
------------------------------------------------------------------------|
------------------------------------------------------------------------|
------------------------------------------------------------------------|


------------10----------12---10--------------------15---|
--L--12--------12-10-------------------13-12-10---------|
---------------------12-------------------------12------|
--------------------------------------------------------|
--------------------------------------------------------|
--------------------------------------------------------|


--14--------15-14-------19-15-17----------15----15-14-12----12----|
------------------17-15----------19-17-15----17----------15----14-|
------------------------------------------------------------------|
------------------------------------------------------------------|
------------------------------------------------------------------|
------------------------------------------------------------------|


--10------L------------------------L---------------|
---------------------------13----------------------|
------------11-12--------------------9-11----------|
------------------14-12-14----------------12-11-12-|
---------------------------------------------------|
---------------------------------------------------|


----------L----------------------------------------------|
--12----------------------------12---13---12-------------|
---------------------11-12-14----------------14-12-11----|
------------14-13-14----------------------------------14-|
---------------------------------------------------------|
---------------------------------------------------------|


----------------------------------------------------------------------|
----------------------------------------------------------------------|
--------11-12-14---11-12----------------12----------------12----------|
--13-14------------------14-13-14----14----14-13-14----14----14-12-14-|
----------------------------------14----------------14----------------|
----------------------------------------------------------------------|


----------------------------------------------------------------------|
----------------------------------------------------------------------|
-----------11-12------11----------------11----------------11----------|
--11-12-14---------14----12-11-12----12----12-11-12----12----12-10-12-|
----------------------------------12----------------12----------------|
----------------------------------------------------------------------|


----------------------------------------------11----14-------------|
----------------------------------13---------------------12--------|
--------------10------------14-------14-13-14----14-----------14---|
-----10-12-14------14-13-14----14----------------------------------|
--14---------------------------------------------------------------|
-------------------------------------------------------------------|


-----------11-12-14-15-19-17-15-14----------------14-15-17-14-------------|
-----12-14-------------------------17-16-14-16-17-------------17-16-14----|
--12-------------------------------------------------------------------16-|
--------------------------------------------------------------------------|
--------------------------------------------------------------------------|
--------------------------------------------------------------------------|

 
-----15-14----17----15-19-17-15-17----15-19-17-15-------------------17--|
--17-------17----19----------------19-------------19-17-16-17-19--------|
-----------------------------------------------------------------16-----|
------------------------------------------------------------------------|
------------------------------------------------------------------------|
------------------------------------------------------------------------|


--L--15--------------------------------------------12---|
--------------------------------------------------------|
------------16----------17---16--------14-12-11---------|
---------------17-16-14-------------------------14------|
--------------------------------------------------------|
--------------------------------------------------------|


--11--------12-10-------15-12-14----------12----12----------------|
------------------14-12----------15-14-12----14----15-14-12-14----|
---------------------------------------------------------------15-|
------------------------------------------------------------------|
------------------------------------------------------------------|
------------------------------------------------------------------|


----------L-------------12-10-------------------------16---19---|
--12-----------12-15-14---------12---15-14-15-14-15-------------|
------------15--------------------------------------------------|
----------------------------------------------------------------|
----------------------------------------------------------------|
----------------------------------------------------------------|


------------------------------------------------------14--17---|
------------------------15-13--------13-12-13-12-13------------|
--19------L-------17-16---------14-----------------------------|
------------18-19----------------------------------------------|
---------------------------------------------------------------|
---------------------------------------------------------------|


---------------------------------------------------------------|
---------------------------------------------------15----------|
--17------L-14-16-------------16-17-14----14----17----16-14-16-|
------------------17-16-17-14----------17----16----------------|
---------------------------------------------------------------|
---------------------------------------------------------------|


--------12-------------12-13-10----10------15----L----13-12-10----|
-----15----13-12-13-------------13----12-----------13----------13-|
--12----------------14--------------------------------------------|
------------------------------------------------------------------|
------------------------------------------------------------------|
------------------------------------------------------------------|


-----------------------------------------------------------10-------------|
--12-13-12----------------------------------------------10----13-12-------|
-----------14-12-10----12-10----------------------10-12-------------14-12-|
--------------------14-------14-12-10----10-12-14-------------------------|
--------------------------------------14----------------------------------|
--------------------------------------------------------------------------|


-----------------10-12-15-13-12-13-------20-19-20-17----15--------------|
--13----10-12-13-------------------15-17-------------18-------------18--|
-----12----------------------------------------------------17-16-17-----|
------------------------------------------------------------------------|
------------------------------------------------------------------------|
------------------------------------------------------------------------|


-------------------14---17---20-----------------------------|
--L----17---------------------------------------------15----|
----19----17-16-17----------------17-19-16-14-16------------|
-------------------------------------------------14---------|
------------------------------------------------------------|
------------------------------------------------------------|


-------------------12----------------14----------------15----12----------|
--L-------------------12-13-------------13-15-12----12----15----13-12-13-|
----16-17-14-13-14----------14-13-14-------------14----------------------|
-------------------------------------------------------------------------|
-------------------------------------------------------------------------|
-------------------------------------------------------------------------|


--17-15-14---------------------------------------------------------------|
-----------17-15-13----15-13-------------17-15-13-12----------------12---|
--------------------16-------16-14-------------------14-12-11------------|
-----------------------------------17-16----------------------14-12------|
-------------------------------------------------------------------------|
-------------------------------------------------------------------------|


--5--------------------------------------10------------------|
-----------------------------------12-13----------------13---|
--------------------------11-12-14----------12-11------------|
-----------------10-12-14-------------------------14-12------|
-----------12-14---------------------------------------------|
-------------------------------------------------------------|


------------------------10----------12----|
--12-----------------------12----------13-|
------------------------------14-12-------|
------------------------------------------|
------------------------------------------|
------------------------------------------|


--10-------------------10-------------------------------------------------|
-----12-10----13----12----13-12-13----12-------------------12-------------|
-----------12----14----------------14----12-11----14-11-12----14-12-14-11-|
-----------------------------------------------14-------------------------|
--------------------------------------------------------------------------|
--------------------------------------------------------------------------|


--------------------------------------------------------------------------|
--------------------------------------------------------------12-13-------|
--12----------10-------12-10----10-------10-12-14----10----14----------12-|
-----14-12-10----12-14-------14----12-14----------12----14----------14----|
--------------------------------------------------------------------------|
--------------------------------------------------------------------------|


-----------------------------10-------------------------------10-12-------|
-----------12----------12-13----------------12-13----------13----------12-|
--11-12-14-------12-11----------11-14-12-14-------11-14-12----------12----|
--------------14----------------------------------------------------------|
--------------------------------------------------------------------------|
--------------------------------------------------------------------------|


-----------------10-------------13---12--------10----------15---|
--10----10-12-13----13-12-------------------------14-12---------|
-----12-------------------14-12-------------------------14------|
----------------------------------------------------------------|
----------------------------------------------------------------|
----------------------------------------------------------------|


--14--------17-14-------20---19----17-19----15-------15-17----14-|
------------------17-15---------20-------17-------19-------15----|
-----------------------------------------------17----------------|
-----------------------------------------------------------------|
-----------------------------------------------------------------|
-----------------------------------------------------------------|


-----10-12-13----10----------10----------------------------------------|
--12----------12-------12-13-------12-------10-12----------------------|
--------------------12----------12-------12----------12------9-10------|
--------------------------------------12----------12----9-12------9-12-|
-----------------------------------------------------------------------|
-----------------------------------------------------------------------|


------------------------------------------8---|
----------------------------------8-7-5-------|
-----------9-7------10---9--------------7-----|
---------------10-9---------------------------|
--10------------------------------------------|
----------------------------------------------|


--7-8-------------------12----10----------------------------------|
------------13-12----------13----12-------13----13-12-------------|
------------------14-12-------------14-12----14-------14-12-14-11-|
------------------------------------------------------------------|
------------------------------------------------------------------|
------------------------------------------------------------------|


--------------------L------L---||
-------------------------------||
--12---------------------------||
-------------------------------||
-------------------------------||
-------------------------------||










Harpsichord LH - transcribed for guitar


E||--------------------------------------------------|
B||------------------0-------------------3-----------|
G||--------------0-------0-----------2---------------|
D||----------0---------------0---4-----------4---0---|
A||------2-------------------------------------------|
E||--3-----------------------------------------------|


--------------------------------------------------|
------------------------------------------3-------|
--0-----------------------------------0-----------|
------0-----------------------2---4-----------0---|
----------2-------2---3---2-----------------------|
--------------3-----------------------------------|


-------------------------------------------|
-------------------------------------------|
--0------------------------------------0---|
----------0-------2---0--------------------|
------------2-0----------------3-2-0-------|
----------------3--------------------3-----|


-----------------------------------------------|
-------------------0---------------------------|
-----------0---------0-2-------0---0-----------|
--4----------4-2-0-------4-2-0---2---4-2-0-2---|
---------------------------------------------4-|
-----------------------------------------------|


--------------------------------------------------|
------3-------0-1-3-0---0-----1---------0-1-------|
----------2-----------0-----------0---2-----2---2-|
--0-------------------------------------------4---|
--------------------------3-----------------------|
--------------------------------------------------|


-----------------------------------------------|
------0----------------------------------------|
--------------0--2----------0------------------|
----------4----------2---4------0---2--4---0---|
--2--------------------------------------------|
-----------------------------------------------|


-------------------------------------------|
-------------------------------------------|
--0----------------------------------------|
-------------------------------------------|
------------------2---0----------------3---|
----------3-2-0----------------3-2-0-------|


-----------------------------------------------|
-----------------------------------------------|
-----------------------------------------------|
-----------0-------2---0-----------------------|
--2----------2-0-----3---2-0---3-0-3-2-0---0---|
-----------------3-----------3-----------3---2-|


--------------------------------------------------|
--------------------------------------------------|
----------------------------------------0---------|
----------------0-------------------0-2---4-2-0---|
------------0-2---3-2-3-0-2---0-2-3-------------4-|
--3---0-2-3-----------------3---------------------|


-------------------------------------------------|
--------------0----------------------------------|
--2-------0-2---2-0---0-----2-0---------------0--|
----0-2-4-----------4---2-4-----4-2-0---0-2-4----|
--------------------------------------4----------|
-------------------------------------------------|


----------------------------------------|
--------------0------L------------------|
--L------------------------------2------|
----2-4-0---0----------0-2--------------|
----------4----------------3-2-3--------|
----------------------------------------|


---------------------------------------------|
--------------1------L-0---------------------|
--L---0------------------2-0-----------------|
----4---2-1-2----------------4-2-1---2-------|
-----------------------------------------3---|
---------------------------------------------|


----------------------------------------------|
------0---------------------------------------|
--------2-0-----------------------------------|
------------4-2---------------------------2---|
--2-------------------------2--0--------------|
------------------0--2--3---------3---0-------|


----------------------------------------------|
----------------------------------------------|
----------------------------------------------|
--------0-2---0---------------------------0---|
--0-2-4-----4---------------0-----------------|
---------------------0--2------3--2-----------|


--------------------------------------------------|
------------------1-------------------------------|
--------------------------2-----------------------|
----------0-----------4-------1---4-------1-2-4-1-|
----0-2-3---2-3-----------------------2-4---------|
--3-----------------------------------------------|


---------------------------------------------|
---------------------------------------------|
--------------------0--------------------2---|
--2---------2-1---------4--------2-1---------|
----------------4-2------------------4-2-----|
------0--------------------------------------|


-----------------------------------------------|
-----------0-------1---0-----------------------|
--0----------0-------2---0-----2---2-0---------|
---------------4-2---------4-2---4-----4-2-4-1-|
-----------------------------------------------|
-----------------------------------------------|


----------------------------------------0---------|
----------------0-------------------0-2---4-2-0---|
--------------0---2-0-2---0-----0-2-------------3-|
--2-----1-2-4-----------4---2-4-------------------|
----2-4-------------------------------------------|
--------------------------------------------------|


--2-------0-2-3-2-0---0---------------------------|
----0-2-4-----------3---2-3-----------------------|
----------------------------------0---------------|
------------------------------0-------2---4-------|
--------------------------------------------------|
----------------------------------------------2---|


--------------------------------------------------|
----------0-2-3-2-3-0---0---0-3-0---0---0-3-0---0-|
------1-3-------------3-----------3-----------2---|
----4---------------------4-----------3-----------|
--2-----------------------------------------------|
--------------------------------------------------|


------0-------------------------------------------|
----0---3-1-0---0-1-----------1-----------1-------|
--------------2-----2-1-2---2---2-1-2---2---2-0-2-|
--2-----------------------2-----------1-----------|
--------------------------------------------------|
--------------------------------------------------|


--------------------------------------------|
------3-1-0---------------------------------|
----2-------2-0-----------------------------|
--0-------------------------------0------0--|
---------------------2--3---0--3------2-----|
------------------3-------------------------|


----------------------------------------------|
----------------------------------------------|
--------------------------------------2-------|
--2------2--3-------3---2-3-------2-------3---|
------3---------0-----------2-0-2-------------|
----------------------------------------------|


---------------------------------------------|
---------------------------------------------|
--0------------------------------------------|
--------------------2---0----------------3---|
------------3-2-0----------------3-2-0-------|
------3-----------3--------------------3-----|


-----------------------------------------------|
-----------------------------------------------|
-----------0-------2---0-----------------------|
--2----------2-0-----3---2-0---3-0-3-2-0---0---|
-----------------3-----------3-----------3---2-|
-----------------------------------------------|


--------------------------------------------------|
------1---------0-1-------0---------------0-------|
----------0---2-----2-0---------------1-2---1-----|
------------------------4---------4-----------4-2-|
--3---------------------------2-------------------|
--------------------------------------------------|


--------------------------------0-----------|
---------0--1------1--3---0--3------1-------|
------2---------2-----------------------2---|
--------------------------------------------|
--0-----------------------------------------|
--------------------------------------------|


---------------------------------------------|
--------------------0------------0-3-1-0-----|
------------0-----------2----------------2-0-|
--4---0-------4-2-0--------------------------|
---------------------------------------------|
---------------------------------------------|


----0----------------------------------------|
------3-1-0-----------1---0------------------|
------------2-0------------------------------|
--4-------------4-2-0------------------0-2-4-|
-----------------------------------2-3-------|
---------------------------------------------|


------------0---------0---------------------------|
------0-1-3---3-0-------1-3-0-----1---0-3-1-0-1---|
--0-2-------------2-0---------2-0---2-----------2-|
--------------------------------------------------|
--------------------------------------------------|
--------------------------------------------------|


--------------------------------------------------|
--0-------------0-----------0-----1---0-----------|
----0-----2---0---2-0-2---0---2-0---2---0---------|
------4-2---4-----------4-----------------4-2-4-1-|
--------------------------------------------------|
--------------------------------------------------|


------------------------------------------------|
------------------------------1--0--1-------1---|
----0-----2---0-------------------------2-------|
--2---3-2---3---2-0---0-------------------------|
--------------------3---2-3---------------------|
------------------------------------------------|


----------------------------0-----0-------0---|
------3--2--3---0---3----------4------1-------|
----------------------------------------------|
--0---------------------2---------------------|
----------------------------------------------|
----------------------------------------------|


--------------------------------------0-----------|
--------------------------------0-1-3-------------|
--------------0-------------0-2-------------------|
--4---2---0-------------------------------0-------|
------------------3-2-0---3-----------------4-2-0-|
------------------------3-------------------------|


------------0-2-----------------------------------|
------0-2-3---------------------------------------|
----2-------------0-------0-----------------------|
--0-----------------4-2-0-----2-----------0-------|
----------------------------------3---0-----------|
--------------------------------------------------|


--------------0-1-----------------------------|
------------3-----0-3---0-1-3---0-------------|
----------------------0-------0-------0-2-----|
----------------------------------0-3-----0-3-|
----------------------------------------------|
--3-------------------------------------------|


--------------------------------------------------|
--------------------------------------0-3-1-0-----|
----------------------------------0-2---------2-0-|
----0-2-3---0---------------0-2-4-----------------|
--2-------2-------0---2---3-----------------------|
--------------3-----------------------------------|


--------------------------------------------------|
--------------------------------------------------|
----2-0-------0-----------0-----------------------|
--4-----4-2-0-----2---------------2-------0-------|
----------------------3-------2-------3-----------|
--------------------------------------------------|


------------------------------||
------------------------------||
------------------------------||
------------------------------||
------------------------------||
--3----------------L------L---||




Duration Legend
---------------
W - whole
H - half
Q - quarter
E - 8th
S - 16th
T - 32nd
X - 64th
. - note dotted
|-n-|  - n-tuplets


Tablature Legend
----------------
L - tied note
x - dead note
g - grace note
(n) - ghost note
> - accentuded note
NH - natural harmonic
AH - artificial harmonic
TH - tapped harmonic
SH - semi harmonic
PH - pitch harmonic
h - hammer on
p - pull off
b - bend
br - bendRelease
pb - preBend
pbr - preBendRelease
brb - bendReleaseBend
\n/ - tremolo bar dip
\n - tremolo bar dive
-/n - tremolo bar Release up
/n\ - tremolo bar inverted dip
/n - tremolo bar return
-\n - tremolo bar Release down
S - shift slide
s - legato slide
/ -  slide into from below or out of upwards
\ -  slide into from above or out of downwards
~ - vibrato
W - wide vibrato
tr - trill
TP - tremolo picking
T - tapping
S - slap
P - pop
< - fade in
^ - brush up
v - brush down
Добавлено: 08.05.2012
Другие материалы по этой песне:

Страница создана 08.05.2012
http://primanota.ru/johann-sebastian-bach/bwv-804-duetto-iii-in-g-major-chords.htm
Привет, Гость.
Предлагаем пройти революционный курс по гитаре.
Подарок от PrimaNota.Ru, забирай!