PrimaNota.ru - самый крупный в мире бесплатный архив песенных текстов, аккордов, табулатур и нот


Бах Иоганн Себастьян - Bwv 803 - Duetto Ii In F Major - таба, видео

Регистрация Запомнить меня
Войти через:  Facebook Google Twitter Vk Yandex Mail.ru

Бах Иоганн Себастьян - Bwv 803 - Duetto Ii In F Major - таба, видео

Печатать
Просмотров: 152
                                        JOHANN SEBASTIAN BACH
                                   BWV 803 - Duetto II In F Major
                                            Time: 2/4




Harpsichord RH (Main part) - transcribed for guitar


E||----------------L---|--8----L----------|-------8---10---12---|
B||-------L---10-------|------------11-10-|--11-----------------|
G||--10----------------|------------------|---------------------|
D||--------------------|------------------|---------------------|
A||--------------------|------------------|---------------------|
E||--------------------|------------------|---------------------|

 
--13-------13--17--|--15-13-12----------------|--------------10----|
-------13----------|-----------15-13----------|-----13----10-------|
-------------------|-----------------15-14-12-|--14----10----------|
-------------------|--------------------------|--------------------|
-------------------|--------------------------|--------------------|
-------------------|--------------------------|--------------------|


--L--10-10-------12-10-13-|--12-10-------------------|
-----13-13-12-13----------|--------13-12-10-13----13-|
--------------------------|--------------------12----|
--------------------------|--------------------------|
--------------------------|--------------------------|
--------------------------|--------------------------|


-----12-10-------10-------|----------12-------|-------------------|
-----------13-12-------12-|--13----L----10-13-|----------10-------|
--10----------------12----|-------------------|--10----L-------10-|
--------------------------|-------------------|-------------12----|
--------------------------|-------------------|-------------------|
--------------------------|-------------------|-------------------|


----------10-------|-------------------|--------------------------|
--11----L-------11-|-------------------|-----13-------------------|
-------------12----|----------12-------|--14----10-14----10-------|
-------------------|--14----L----10-14-|--------------12-------12-|
-------------------|-------------------|--------------------13----|
-------------------|-------------------|--------------------------|


------------------------|-----------------10-------|-------------------|
-----11-----------------|-----10-------11-------11-|-------------------|
--12----9-12----9-------|--10-------10-------12----|-----------9---L---|
-------------10------10-|--------12----------------|--10---L-----------|
------------------12----|--------------------------|-------------------|
------------------------|--------------------------|-------------------|


------------------|----------------------|---------------10--|
------------------|------------10---11---|--13-------11------|
--10----L----10-9-|--10---12-------------|-------10----------|
------------------|----------------------|-------------------|
------------------|----------------------|-------------------|
------------------|----------------------|-------------------|


--------------------------|--------------------|----10------------|
--13-11-10----------------|--------------11----|--L-------11------|
-----------12-10----------|--------10----------|-------12----9----|
-----------------13-12-10-|--12-------12-------|------------------|
--------------------------|-----13-------------|------------------|
--------------------------|--------------------|------------------|


-------------------|----12-------------|-------------10----13-10-|
-------------13----|--L----10-13-------|-------10-------10-------|
--L----12----------|-------------10----|--L-------10-------------|
----10----14-------|-------------------|----12-------------------|
-------------------|-------------------|-------------------------|
-------------------|-------------------|-------------------------|


--------10----15----18-15-|--------15----18-15----20-|
--11-------11----15-------|--17-------17-------17----|
-----12-------------------|-----17-------------------|
--------------------------|--------------------------|
--------------------------|--------------------------|
--------------------------|--------------------------|


--17-20----17-------------|-----15----11----11-10----|
--------18-------18-16-15-|--16----13----10-------13-|
--------------17----------|--------------------------|
--------------------------|--------------------------|
--------------------------|--------------------------|
--------------------------|--------------------------|


--10----12----13----15----|-----15-13-12----13----13-|
-----11----11----11-------|--------------15----13----|
-----------------------15-|--14----------------------|
--------------------------|--------------------------|
--------------------------|--------------------------|
--------------------------|--------------------------|


-----17-15-13----15-------|--13----17-13-------13----|
--11----------17-------17-|-----13-------13-------13-|
--------------------17----|-----------------14-------|
--------------------------|--------------------------|
--------------------------|--------------------------|
--------------------------|--------------------------|


--------------------------|-----------17p15p13-15h17p15h17p15h17p15p13h15-|
--------13----------------|-----------------------------------------------|
--14-------14-------14----|-----------------------------------------------|
-----15-------15-------15-|-----------------------------------------------|
-----------------15-------|--15---L---------------------------------------|
--------------------------|-----------------------------------------------|


--13---L----------|----------------|----------12-13----|--L--11-10-11--------|
------------------|------14--15----|--L-14-15----------|---------------------|
--------------14--|--15------------|-------------------|----------------11---|
------------------|----------------|-------------------|---------------------|
------------------|----------------|-------------------|---------------------|
------------------|----------------|-------------------|---------------------|


------------------|-----------------|-------12----------------|
------------------|--9--10----------|-------------------------|
--12---L------10--|-----------12-11-|--12------12-10-------10-|
------------------|-----------------|----------------14-12----|
------------------|-----------------|-------------------------|
------------------|-----------------|-------------------------|


------------12-12--------|-----------------------|--------------------|
------------15-15-14-15--|--L--14-12-------------|--------------------|
-------14----------------|-----------14-12-10----|-----------10---L---|
--14---------------------|--------------------14-|--12---L------------|
-------------------------|-----------------------|--------------------|
-------------------------|-----------------------|--------------------|


-------------------|-----------------9---|--10----L----9----|
--10----L----------|-------10---12-------|---------------12-|
-------------12-10-|--12-----------------|------------------|
-------------------|---------------------|------------------|
-------------------|---------------------|------------------|
-------------------|---------------------|------------------|



--9---10---12---13---|--17p15p13-12-13------|--12---L---10p9h10p9h10p9----9-|
---------------------|------------------15--|--------------------------12---|
---------------------|----------------------|-------------------------------|
---------------------|----------------------|-------------------------------|
---------------------|----------------------|-------------------------------|
---------------------|----------------------|-------------------------------|


--10-----------11--|--12----L-11-12-14-|--15----L----13-12-|
-------12--13------|-------------------|-------------------|
-------------------|-------------------|-------------------|
-------------------|-------------------|-------------------|
-------------------|-------------------|-------------------|
-------------------|-------------------|-------------------|


--13-----------------|-----------------|----------------14----|
---------------------|---------11--12--|--L--10----10---------|
-------13---14---L---|-----12----------|--------13---------14-|
---------------------|-----------------|----------------------|
---------------------|-----------------|----------------------|
---------------------|-----------------|----------------------|


-------------------11---|--------------------|----------------|
------------------------|--18-18-------------|----------------|
--12-11----12-11--------|--21-21-20-21-------|----------------|
--------14--------------|--------------------|----------------|
------------------------|--------------------|-------19---L---|
------------------------|--------------------|----------------|

 
-----------------|---------------------|-------10---12----|
-----------------|----------------12---|--13--------------|
-----------16----|--L--14-13-14--------|------------------|
--18---L---------|---------------------|------------------|
-----------------|---------------------|------------------|
-----------------|---------------------|------------------|


--L--10----10---12---|--14---16---17----|--L--16-14-12----------|
--------13-----------|------------------|--------------15-13-12-|
---------------------|------------------|-----------------------|
---------------------|------------------|-----------------------|
---------------------|------------------|-----------------------|
---------------------|------------------|-----------------------|


-------------------|--13----17----20--------|--------------------|
--10----L----13----|-----13----18------18---|--17---16---15--14--|
----------------14-|------------------------|--------------------|
----------14-------|------------------------|--------------------|
-------------------|------------------------|--------------------|
-------------------|------------------------|--------------------|


--------------------|-----------------------10-|--12-10----10-12-13-15---|
--L--13---12---11---|--10----------10-11-13----|--------13---------------|
--------------------|-----12-10-12-------------|-------------------------|
--------------------|--------------------------|-------------------------|
--------------------|--------------------------|-------------------------|
--------------------|--------------------------|-------------------------|


--------------------|-------------------|----------------------|
--13---L------------|-------------------|----------------------|
-----------13---L---|--10----L----12-13-|--12---10-------------|
--------------------|-------------------|------------13---11---|
--------------------|-------------------|----------------------|
--------------------|-------------------|----------------------|


-------------------|--------------------------|--------------------------|
-------------------|-----------------------11-|--------------------11-13-|
-------10----------|--------------10-12-13----|--12-10----10-12-13-------|
--10-------10------|-----10-11-13-------------|--------14----------------|
---------------11--|--13----------------------|--------------------------|
-------------------|--------------------------|--------------------------|

 
--------------------------|--------------------------|-------------------|
-----------------11-13-14-|-----14-13-11-------------|---------------12--|
--13-12-10-12-13----------|--------------13-12-10----|--10---12--13------|
--------------------------|--14-------------------14-|-------------------|
--------------------------|--------------------------|-------------------|
--------------------------|--------------------------|-------------------|


----------------10-|--11----L----9-8-|--9----------------|--------------|
--13----L-12-13----|-----------------|-------------------|--------7--8--|
-------------------|-----------------|------9---10---L---|-----8--------|
-------------------|-----------------|-------------------|--------------|
-------------------|-----------------|-------------------|--------------|
-------------------|-----------------|-------------------|--------------|


---------------10----|------------------------|--10-10-------------|
--L------------------|-------------------12---|--13-13-12-13-------|
-----10-9-10------10-|------------------------|--------------------|
---------------------|--13-12-10-13-12--------|--------------------|
---------------------|------------------------|--------------------|
---------------------|------------------------|--------------------|

   
----------------|---------------|--------------------|------------------|
----------------|----------8----|--L-----------------|-------11---13----|
----------------|--9---L--------|-----10-9-10---12---|--13--------------|
-------10---L---|---------------|--------------------|------------------|
----------------|---------------|--------------------|------------------|
----------------|---------------|--------------------|------------------|


---------------------|--10---12---13----|--L--12-10-------------|
--L--11----11---13---|------------------|-----------13-11-------|
--------13-----------|------------------|-----------------13-12-|
---------------------|------------------|-----------------------|
---------------------|------------------|-----------------------|
---------------------|------------------|-----------------------|

 
----------------|----------10-11----|--L--9-8-9------|------------------|
------12--13----|--L-12-13----------|----------------|------------------|
--13------------|-------------------|------------9---|--10---L----------|
----------------|-------------------|----------------|--------------13--|
----------------|-------------------|----------------|------------------|
----------------|-------------------|----------------|------------------|


-----------------|-------10--------------|------------10-10--------|
-----------------|-----------------------|------------13-13-12-13--|
--11--12----10-9-|--10------10-8-------8-|-------12----------------|
-----------------|---------------12-10---|--12---------------------|
-----------------|-----------------------|-------------------------|
-----------------|-----------------------|-------------------------|


-----------------------|--------------------|-------------------|
--L--12-10-------------|--------------------|-------------------|
-----------12-10-------|--------------------|--12----L----10----|
-----------------13-12-|--10---L---13---L---|----------------13-|
-----------------------|--------------------|-------------------|
-----------------------|--------------------|-------------------|


----------------------|-------------------|------------10---11---|
------------10---12---|--13----L----12-10-|--12---13-------------|
--10---12-------------|-------------------|----------------------|
----------------------|-------------------|----------------------|
----------------------|-------------------|----------------------|
----------------------|-------------------|----------------------|


--15-13-11-10-11--------|--10-10---L-------------------------|----------------|
-------------------13---|--13--------13p12h13p12h13p12-10-12-|--13---L--------|
------------------------|------------------------------------|----------------|
------------------------|------------------------------------|----------------|
------------------------|------------------------------------|----------------|
------------------------|------------------------------------|----------------|


--------------------|-------------------|------------10---12---|
-----------10---L---|--13----L----11-10-|--11---13-------------|
--10---L------------|-------------------|----------------------|
--------------------|-------------------|----------------------|
--------------------|-------------------|----------------------|
--------------------|-------------------|----------------------|


--13-------13--17--|--15-13-12----------------|--------------10----|
-------13----------|-----------15-13-11-10----|--10-13----10-------|
-------------------|-----------------------12-|--------10----------|
-------------------|--------------------------|--------------------|
-------------------|--------------------------|--------------------|
-------------------|--------------------------|--------------------|


--L--10-10-------12-10-13-|--12-10-------------------|
-----13-13-12-13----------|--------13-12-10-13----13-|
--------------------------|--------------------12----|
--------------------------|--------------------------|
--------------------------|--------------------------|
--------------------------|--------------------------|


-----12-10-------10-------|----------12-------|-------------------|
-----------13-12-------12-|--13----L----10-13-|----------10-------|
--10----------------12----|-------------------|--10----L-------10-|
--------------------------|-------------------|-------------12----|
--------------------------|-------------------|-------------------|
--------------------------|-------------------|-------------------|


----------10-------|-----------------|--------------------------|
--11----L-------11-|-----------------|--10-13----10-------------|
-------------12----|--9----L-12----9-|--------10-------10-------|
-------------------|------------10---|--------------12-------12-|
-------------------|-----------------|--------------------13----|
-------------------|-----------------|--------------------------|


------------------------|-----------------10-------|-------------------|
-----11-----------------|-----10-------11-------11-|-------------------|
--12----9-12----9-------|--10-------10-------12----|-----------9---L---|
-------------10------10-|--------12----------------|--10---L-----------|
------------------12----|--------------------------|-------------------|
------------------------|--------------------------|-------------------|


------------------|----------------------|---------------10--|
------------------|------------10---11---|--13-------11------|
--10----L----10-9-|--10---12-------------|-------10----------|
------------------|----------------------|-------------------|
------------------|----------------------|-------------------|
------------------|----------------------|-------------------|


--------------------------|--------------------|----10------------|
--13-11-10----------------|--------------11----|--L-------11------|
-----------12-10----------|--------10----------|-------12----9----|
-----------------13-12-10-|--12-------12-------|------------------|
--------------------------|-----13-------------|------------------|
--------------------------|--------------------|------------------|


-------------------|----12-------------|-------------10----13-10-|
-------------13----|--L----10-13-------|-------10-------10-------|
--L----12----------|-------------10----|--L-------10-------------|
----10----14-------|-------------------|----12-------------------|
-------------------|-------------------|-------------------------|
-------------------|-------------------|-------------------------|


--------10----15----18-15-|--------15----18-15----20-|
--11-------11----15-------|--17-------17-------17----|
-----12-------------------|-----17-------------------|
--------------------------|--------------------------|
--------------------------|--------------------------|
--------------------------|--------------------------|


--17-20----17-------------|-----15----11----11-10----|
--------18-------18-16-15-|--16----13----10-------13-|
--------------17----------|--------------------------|
--------------------------|--------------------------|
--------------------------|--------------------------|
--------------------------|--------------------------|


--10----12----13----15----|-----15-13-12----13----13-|
-----11----11----11-------|--------------15----13----|
-----------------------15-|--14----------------------|
--------------------------|--------------------------|
--------------------------|--------------------------|
--------------------------|--------------------------|


-----17-15-------15-------|--------17----------13----|
-----------18-17-------17-|--18-------18----------13-|
--15----------------17----|-----17-------17-14-------|
--------------------------|--------------------------|
--------------------------|--------------------------|
--------------------------|--------------------------|


--------------------------|-----------17p15p13-15h17p15h17p15h17p15p13-15-|
--------13----------------|-----------------------------------------------|
--14-------14-------14----|-----------------------------------------------|
-----15-------15-------15-|-----------------------------------------------|
-----------------15-------|--15---L---------------------------------------|
--------------------------|-----------------------------------------------|


--13----L-------||
----------------||
----------------||
----------------||
----------------||
----------------||










Harpsichord LH - transcribed for guitar


E||-----------|-----------|-----------|-----------|------------------|
B||-----------|-----------|-----------|-----------|------------------|
G||-----------|-----------|-----------|-----------|------------------|
D||-----------|-----------|-----------|-----------|----------2---L---|
A||-----------|-----------|-----------|-----------|--3---L-----------|
E||-----------|-----------|-----------|-----------|------------------|


----------------|------------------|------------0--|------------------|
----------------|--------------0---|--1------1-----|--3-1-0-----------|
----------------|------0---2-------|------0--------|--------2-0-------|
--3----L----3-2-|--3---------------|---------------|------------3-2-0-|
----------------|------------------|---------------|------------------|
----------------|------------------|---------------|------------------|


---------------|---------------|---------------|---------------|
---------------|----1----------|---------------|---------------|
----0-----2----|--L-----2------|----------0----|--L-3---0------|
--2-----2------|------3---0----|--L-3---0------|------2--------|
------3--------|---------------|------1--------|----------3----|
---------------|---------------|---------------|---------------|

 
------------------|------------------|------------------|------------------|
------------------|------------------|------------------|------------------|
------------2-----|------------0-----|------------------|----0-----0-3---0-|
----2-----3---0-3-|----0-----2-----2-|----------0-3---0-|--2-----2-----2---|
--L---0-3---------|--1-----1-----3---|--0-3---0-----1---|------3-----------|
------------------|------3-----------|------1-----------|------------------|


---------------|---------------1-|------------1-----|------------------|
----1-----3----|--L--1---1-4-3---|--4-3-4---3-----3-|----3-1-----1-----|
--2-----2------|-------3---------|--------5-----3---|--------3-2-----2-|
------3--------|-----------------|------------------|--1-----------3---|
---------------|-----------------|------------------|------------------|
---------------|-----------------|------------------|------------------|

 
---------------|---------------|---------------|---------------|---------------|
---------------|---------------|---------------|---------1-----|---------------|
---------------|--0----L-3---0-|---------------|--2----L-----2-|---------------|
-----------0---|-----------2---|-----------2---|-----------3---|--0----L-3-0-3-|
--1----L-----1-|---------------|--3----L-0---3-|---------------|---------------|
---------3-----|---------------|---------------|---------------|---------------|


------------------|------------------|------------------|----------------|
------------------|------------------|------------------|----------------|
--0-3---0---------|------------------|------------------|----------------|
------0-----0-----|----2-------------|------------------|----------------|
----------1-----1-|--3-----3---------|----------0---L---|--3----L----1-0-|
--------------3---|------3---0-3---0-|--1---L-----------|----------------|


------------------|---------------|------------------|------------------|
------------------|---------------|------------------|------------------|
------------------|------------2--|--0---------------|------------------|
----------0---2---|--3------3-----|----3-2-0---------|------------3-----|
--1---3-----------|------3--------|----------3-1-0---|--0-3---0-3---0-3-|
------------------|---------------|----------------3-|------1-----------|


------------------|------------------|----------------|--------------|
------------1-----|--1---L-----------|----------------|--------------|
----2-----2-----2-|------------------|----------------|-----------1--|
--3-----3-----3---|------------------|--3-------------|-----2--3-----|
------3-----------|----------3---L---|----3-0-3-------|--------------|
------------------|------------------|----------1-----|--------------|


---------------|----------------|------------------|--------------|
-------------0-|--1----L--------|------------------|--------------|
--2----L-1-2---|------------3-2-|--3---------------|--------------|
---------------|----------------|----------0---L---|--------1--2--|
---------------|----------------|------4-----------|-----3--------|
---------------|----------------|------------------|--------------|


-----------------|------------------|----------------|---------------|
-------------0---|------------------|--0-0-----------|---------------|
-----------------|------------------|--2-2-1-2-------|---------------|
--L--0---0-----0-|--------------2---|----------------|---------------|
-------4---------|--3-2-0-3-2-------|----------------|-------0---L---|
-----------------|------------------|----------------|---------------|


---------------|-----------------|---------------|-----------------|
---------------|-----------------|---------------|-----------------|
---------------|-----------------|------0---2----|--L--0---0---2---|
----------2----|--L--0---0---2---|--3------------|-------3---------|
--4---L--------|-------4---------|---------------|-----------------|
---------------|-----------------|---------------|-----------------|


------------------|-----------------|-------------|---------------|
--0---2---3-------|-----------------|-------------|--------0-1----|
--------------3---|--2-0---0-2------|-----1--2----|--L-1-2--------|
------------------|------3-------2--|--3----------|---------------|
------------------|-----------------|-------------|---------------|
------------------|-----------------|-------------|---------------|


-----------------|----------------|-----------------|------------------|
--L--------------|----------------|-----------------|------0-----------|
-----3-2-3-------|----------------|-----------------|------------------|
-----------------|--0---L---------|--1--2---L---0---|--0-----0---------|
-------------4---|-------------3--|---------------4-|----------3-2-0-3-|
-----------------|----------------|-----------------|------------------|


-------------------|-----------------|------------------|----------------|
----------0-0------|-----------------|------------------|----------------|
----------2-2-1-2--|--L--1-----------|------------------|----------------|
------2------------|-------4-2-0-----|------------------|--2----L----0---|
--2----------------|-------------3-2-|--0---L---3---L---|--------------3-|
-------------------|-----------------|------------------|----------------|


------------------|----------------|------------------|--0-----------1---|
------------------|----------------|----------0---1---|----3-1-0-1-------|
--------------1---|--2----L----1---|--1---2-----------|------------------|
--0---2---4-------|--------------4-|------------------|------------------|
------------------|----------------|------------------|------------------|
------------------|----------------|------------------|------------------|

 
----------0-------|------------------|------------------|----------------|
--3---0-----------|----1-------------|------------------|----------------|
------------------|--2-----2---------|------------------|----------------|
--------------2---|------2-----2-----|------------------|----------------|
------------------|----------3---0-3-|----------0---L---|--3----L----1-0-|
------------------|------------------|--1---L-----------|----------------|

 
------------------|---------------|------------------|------------------|
------------------|---------------|------------------|------------------|
------------------|------------2--|--0---------------|------------------|
----------0---2---|--3------3-----|----3-2-0---------|------------------|
--1---3-----------|------3--------|----------3-1-0---|----3---------3---|
------------------|---------------|----------------3-|--4---1-4---------|

 
-----------------|-----------------|------------------|------------------|
-----------------|-----------------|------1-----------|------------------|
-----------------|-------------0---|--1-3---3-1-0-----|------------------|
------0---1---2--|--L--3---4-------|--------------3-1-|----1-3-1---------|
--4--------------|-----------------|------------------|--4-------4-3-1---|
-----------------|-----------------|------------------|------------------|

 
------------------|------------------|---------------|-------------|
------------------|------------------|---------------|-------------|
------0-----------|----0-1-0---------|---------------|-------------|
--2-3---3-2-0-----|--3-------3-1-----|---------------|-----2--3----|
--------------3---|--------------4---|--3---------3--|--4----------|
------------------|------------------|---------------|-------------|


---------------|-----------------|---------------|-----------------|
---------------|-----------------|---------------|-----------------|
--------0-1----|--L--------------|---------------|-----------------|
--L-2-3--------|-----4-3-4-------|---------------|-----------------|
---------------|-------------0---|--1----L-------|--2--3---L---1-0-|
---------------|-----------------|------------4--|-----------------|


------------------|-------------------|-----------------|------------------|
------------------|-------------------|-----------------|------------------|
------0-----------|----------0-0------|-----------------|------------------|
------------------|----------3-3-2-3--|--L--2-0---------|------------------|
--1-----1---------|------3------------|---------3-1-----|------------------|
----------4-3-1-4-|--3----------------|-------------4-3-|--1---L---4---L---|


----------------|------------------|----------------|------------------|
----------------|------------------|----------------|------------------|
----------------|------------------|----------------|----------0---1---|
----------------|----------0---2---|--3----L----2-0-|--2---3-----------|
--3----L----1---|--1---3-----------|----------------|------------------|
--------------4-|------------------|----------------|------------------|


------------------|------------------|---------------|---------------|
--1-----------2---|----------1-------|---------------|---------------|
----3-1-0-1-------|--3---0-----------|---------------|--0----L---0-2-|
------------------|------------------|--3---0--1--4--|---------4-----|
------------------|--------------3---|---------------|---------------|
------------------|------------------|---------------|---------------|


----------------|------------------|--------------|-----------------|
----------------|------------------|--------------|-----------------|
--3----L----1-0-|--1---------------|--------------|-------------2---|
----------------|------------------|-----------0--|--L--------------|
----------------|------2---3---L---|-----1--4-----|-----3-2-3-----3-|
----------------|------------------|--------------|-----------------|

 
------------------|----------------|---------------|---------------|
------------------|----------------|---------------|---------------|
------------------|--0-0---0-------|---------------|---------------|
--------------0---|--7-7-4---------|---------------|----------0----|
--1-0---1-0-------|----------------|---------------|--2---L--------|
------3-----------|----------------|-------3---L---|---------------|

 
-----------------|---------------|-----------------|-----------------|
-----------------|---------------|-----------------|------0---1------|
-----------------|----------0----|--L----------0---|--2-----------1--|
--L----------0---|--1---3--------|-----3-2-3-------|-----------------|
-----3-2-3-------|---------------|-----------------|-----------------|
-----------------|---------------|-----------------|-----------------|

 
------------------|----5-3-1-0-------|----1-0-----------|------------------|
------------------|------------3-1---|--------3-1-------|------------------|
--0-------0-------|----------------3-|--2---------3-2-0-|----3-2-0---------|
----3-1-3---------|------------------|------------------|--3-------3-1-0---|
------------------|--3---------------|------------------|----------------3-|
--------------3---|------------------|------------------|------------------|


------------------|---------------|------------------|----------------|
------------------|---------------|------------------|----------------|
------------------|---------------|------------------|----------------|
--0-3-2-0---------|---------------|----------2---L---|--3----L----3-2-|
----------3-1-0---|--0------------|--3---L-----------|----------------|
----------------3-|------1--------|------------------|----------------|

 
------------------|------------0--|------------------|---------------|
--------------0---|--1------1-----|--3-1-0-----------|---------------|
------0---2-------|------0--------|--------2-0-------|----0-----2----|
--3---------------|---------------|------------3-2-0-|--2-----2------|
------------------|---------------|------------------|------3--------|
------------------|---------------|------------------|---------------|


---------------|---------------|---------------|------------------|
----1----------|---------------|---------------|------------------|
--L-----2------|----------0----|--L-3---0------|------------2-----|
------3---0----|--L-3---0------|------2--------|----2-----3---0-3-|
---------------|------1--------|----------3----|--L---0-3---------|
---------------|---------------|---------------|------------------|


------------------|------------------|------------------|---------------|
------------------|------------------|------------------|----1-----3----|
------------0-----|------------------|----0-----0-3---0-|--2-----2------|
----0-----2-----2-|----------0-3---0-|--2-----2-----2---|------3--------|
--1-----1-----3---|--0-3---0-----1---|------3-----------|---------------|
------3-----------|------1-----------|------------------|---------------|


---------------1-|------------1-----|------------------|---------------|
--L--1---1-4-3---|--4-3-4---3-----3-|----3-1-----1-----|---------------|
-------3---------|--------5-----3---|--------3-2-----2-|---------------|
-----------------|------------------|--1-----------3---|-----------0---|
-----------------|------------------|------------------|--1----L-----1-|
-----------------|------------------|------------------|---------3-----|


---------------|---------------|---------------|---------------|
---------------|---------------|---------1-----|---------------|
--0----L-3---0-|---------------|--2----L-----2-|---------------|
-----------2---|-----------2---|-----------3---|--0----L-3-0-3-|
---------------|--3----L-0---3-|---------------|---------------|
---------------|---------------|---------------|---------------|


------------------|------------------|------------------|----------------|
------------------|------------------|------------------|----------------|
--0-3---0---------|------------------|------------------|----------------|
------0-----0-----|----2-------------|------------------|----------------|
----------1-----1-|--3-----3---------|----------0---L---|--3----L----1-0-|
--------------3---|------3---0-3---0-|--1---L-----------|----------------|


------------------|---------------|------------------|------------------|
------------------|---------------|------------------|------------------|
------------------|------------2--|--0---------------|------------------|
----------0---2---|--3------3-----|----3-2-0---------|------------3-----|
--1---3-----------|------3--------|----------3-1-0---|--0-3---0-3---0-3-|
------------------|---------------|----------------3-|------1-----------|


------------------|------------------|---------------||
------------1-----|--1---L-----------|---------------||
----2-----2-----2-|------------------|---------------||
--3-----3-----3---|------------------|---------------||
------3-----------|----------3---L---|---------------||
------------------|------------------|--1----L-------||




Duration Legend
---------------
W - whole
H - half
Q - quarter
E - 8th
S - 16th
T - 32nd
X - 64th
. - note dotted
|-n-|  - n-tuplets


Tablature Legend
----------------
L - tied note
x - dead note
g - grace note
(n) - ghost note
> - accentuded note
NH - natural harmonic
AH - artificial harmonic
TH - tapped harmonic
SH - semi harmonic
PH - pitch harmonic
h - hammer on
p - pull off
b - bend
br - bendRelease
pb - preBend
pbr - preBendRelease
brb - bendReleaseBend
\n/ - tremolo bar dip
\n - tremolo bar dive
-/n - tremolo bar Release up
/n\ - tremolo bar inverted dip
/n - tremolo bar return
-\n - tremolo bar Release down
S - shift slide
s - legato slide
/ -  slide into from below or out of upwards
\ -  slide into from above or out of downwards
~ - vibrato
W - wide vibrato
tr - trill
TP - tremolo picking
T - tapping
S - slap
P - pop
< - fade in
^ - brush up
v - brush down
Добавлено: 18.07.2012
Другие материалы по этой песне:

Страница создана 13.03.2012
http://primanota.ru/johann-sebastian-bach/bwv-803-duetto-ii-in-f-major-chords.htm
Привет, Гость.
Предлагаем пройти революционный курс по гитаре.
Подарок от PrimaNota.Ru, забирай!