PrimaNota.ru - самый крупный в мире бесплатный архив песенных текстов, аккордов, табулатур и нот


Бах Иоганн Себастьян - Bwv 802 - Duetto I In E Minor - таба, видео

Регистрация Запомнить меня
Войти через:  Facebook Google Twitter Vk Yandex Mail.ru

Бах Иоганн Себастьян - Bwv 802 - Duetto I In E Minor - таба, видео

Печатать
Просмотров: 172
Уроки эстрадного вокала в Санкт-Петербурге
                                        JOHANN SEBASTIAN BACH
                                   BWV 802 - Duetto I In E Minor
                                            Time: 3/8

                                 
 
Harpsichord RH (Main part) - transcribed for guitar


e||-------------------11-12-11----------|------------8-7-6-|--6-7-----6-5-4-|
B||----------10-12-14----------14-12-10-|------------------|------0---------|
G||--9-11-12----------------------------|--12-11-9---------|----------------|
D||-------------------------------------|------------------|----------------|
A||-------------------------------------|------------------|----------------|
E||-------------------------------------|------------------|----------------|


--4-5-----------12-17-15-14-12-|--11-14-15-12-------14----|
----------10-13----------------|--------------11-10-------|
------2------------------------|-----------------------14-|
-------------------------------|--------------------------|
-------------------------------|--------------------------|
-------------------------------|--------------------------|


-----------------------14-12-10-12----|--10-9---------|---------19--|
-----------13-13-11-12-------------11-|-------12------|-------------|
--14-11-12----------------------------|---------------|-----16------|
--------------------------------------|---------------|-------------|
--------------------------------------|---------------|-------------|
--------------------------------------|---------------|-------------|


--18-------17--|--16-------15--|------16--18--|--19---------|
---------------|---------------|--19----------|-------------|
---------------|---------------|--------------|---------16--|
-------19------|-------17------|--------------|-------------|
---------------|---------------|--------------|-------------|
---------------|---------------|--------------|-------------|


----------------------19-17-15-17----|--15---------|
----------------------------------16-|-------------|
--L-------19-19-16-17----------------|-------------|
----18-19----------------------------|---------17--|
-------------------------------------|-------------|
-------------------------------------|-------------|


----------------------15-14-12-14----|--12--------|
----------------------------------12-|------------|
----------16-16----14----------------|---------9--|
--L-14-16-------17-------------------|------------|
-------------------------------------|------------|
-------------------------------------|------------|


-----------------12-11-9-11----|-------------|
---------8-8---7------------10-|--8-7-5------|
--L----8-----9-----------------|-------------|
----11-------------------------|-------------|
-------------------------------|-------------|
-------------------------------|-------------|

  
--------------------11-12-11----------|--------------------------------------|
-----------10-12-14----------14-12----|-----------------10-12-13-12-10-------|
-----11-12-------------------------14-|--12-11----11-12----------------12-11-|
--14----------------------------------|--------14----------------------------|
--------------------------------------|--------------------------------------|
--------------------------------------|--------------------------------------|


--------------------11-12-11----------|-------------20-19-18-|
-----------10-12-14----------14-12-10-|----------------------|
-----11-12----------------------------|--12-11---------------|
--14----------------------------------|--------14------------|
--------------------------------------|----------------------|
--------------------------------------|----------------------|


--18-19------18-17-16-|--16-17------------12-17-15-14-12-|
----------------------|----------------13----------------|
--------16------------|--------14---14-------------------|
----------------------|----------------------------------|
----------------------|----------------------------------|
----------------------|----------------------------------|


--11-14-15-12-------14----|-----------------------10-|-----12-13-10------12----|
--------------11-10-------|-----12-13----------12----|--14----------9--8-------|
-----------------------14-|--13-------14-------------|----------------------12-|
--------------------------|--------------13-14-------|-------------------------|
--------------------------|--------------------------|-------------------------|
--------------------------|--------------------------|-------------------------|


-----------------------8-|--------------------10-12-14-15-14-12-|
-----10-11----------10---|--12-10----10-12-13-------------------|
--11-------12------------|--------12----------------------------|
--------------11-12------|--------------------------------------|
-------------------------|--------------------------------------|
-------------------------|--------------------------------------|


--10--------------15--|--14-------13--|--12-------11--|--10--12--14--|
-----13-12-10---------|---------------|---------------|--------------|
--------------12------|---------------|---------------|--------------|
----------------------|-------15------|-------13------|--------------|
----------------------|---------------|---------------|--------------|
----------------------|---------------|---------------|--------------|


-------------|-----------------------10-9----------|-------------6-5-4-|
-------------|--------------10-12-14------12-10----|-------------------|
--12--11--9--|--------11-12---------------------12-|--11---------------|
-------------|--12-14------------------------------|-----14-12---------|
-------------|-------------------------------------|-------------------|
-------------|-------------------------------------|-------------------|

 
--4-5-----4-3-2-|--2-3--------------15-13-12----|-----12-13-10-------12----|
----------------|-------------11-15----------15-|--14----------------------|
------2---------|------0---12-------------------|--------------13-12----12-|
----------------|-------------------------------|--------------------------|
----------------|-------------------------------|--------------------------|
----------------|-------------------------------|--------------------------|


---------------------15-13-12-13----|--12--------|
----------11-11-9-10-------------12-|------------|
--12-9-10---------------------------|---------9--|
------------------------------------|------------|
------------------------------------|------------|
------------------------------------|------------|


----------------------12-10----10----|--8---------|--------------0-8-7-6-7---|
----------10-10-------------14-------|------------|--------7-7-------------5-|
--L-------------11-13-------------13-|------------|------------8-------------|
----11-12----------------------------|--------10--|--L-8-9-------------------|
-------------------------------------|------------|--------------------------|
-------------------------------------|------------|--------------------------|


--6--------|-----------12-14-16-18-19-18-16-14----|
-----------|--12-14-15-------------------------17-|
-----------|--------------------------------------|
-----------|--------------------------------------|
-----------|--------------------------------------|
-----------|--------------------------------------|

 
--------------------14-15-14----------|-----------12-14-16-18-19-18-16-14----|
--15-14----14-15-17----------17-15-14-|--12-14-15-------------------------17-|
--------16----------------------------|--------------------------------------|
--------------------------------------|--------------------------------------|
--------------------------------------|--------------------------------------|
--------------------------------------|--------------------------------------|


-----------------12-14-15-14-12-------|-------19------|-------17------|
--15-14----14-15----------------15-14-|---------------|---------------|
--------16----------------------------|--16-------16--|--15-------14--|
--------------------------------------|---------------|---------------|
--------------------------------------|---------------|---------------|
--------------------------------------|---------------|---------------|


-------15------|-------------|------9--11---|------------|------7--9---|
---------------|------9--11--|--12----------|---------9--|--10---------|
--13-------12--|--11---------|--------------|--9--11-----|-------------|
---------------|-------------|--------------|------------|-------------|
---------------|-------------|--------------|------------|-------------|
---------------|-------------|--------------|------------|-------------|


--10-9---------------------------|--------10------10-------|
-------12-10-9--------------9-10-|--12-13------------13-12-|
---------------11-9----9-11------|-------------------------|
--------------------13-----------|-------------------------|
---------------------------------|-------------------------|
---------------------------------|-------------------------|


-----------10-12-14-15-17-15-14-------|--20-17-19---------------|
--10-12-13----------------------17-16-|-------------------------|
--------------------------------------|-------------------------|
--------------------------------------|----------------19-17-16-|
--------------------------------------|-------------------------|
--------------------------------------|-------------------------|


--------------------------------------|------------8-7-6-|--6-7-----6-5-4-|
-----------------14-16-17-16-14-------|------------------|------0---------|
-----------14-16----------------16-14-|--12-11-9---------|----------------|
--14-16-17----------------------------|------------------|----------------|
--------------------------------------|------------------|----------------|
--------------------------------------|------------------|----------------|


--4-5-----------12-17-15-14----|-----14-15-12-------14----|
-------------13-------------17-|--16----------11-10-------|
------2---14-------------------|-----------------------14-|
-------------------------------|--------------------------|
-------------------------------|--------------------------|
-------------------------------|--------------------------|


-------------------------11-12-11----|------------------12--|--11-------10--|
----------------10-12-14----------14-|--12------------------|---------------|
--12-11-9-11-12----------------------|-----14-12-11---------|---------------|
-------------------------------------|--------------14------|-------12------|
-------------------------------------|----------------------|---------------|
-------------------------------------|----------------------|---------------|


--9-------8--|------9--11--|--L-------11-12-11-17-|
-------------|--12---------|----11-12-------------|
-------------|-------------|----------------------|
------10-----|-------------|----------------------|
-------------|-------------|----------------------|
-------------|-------------|----------------------|


--L-15-14-12-14--11-12-11-9-11-|--12----L----||
-------------------------------|-------------||
-------------------------------|-------------||
-------------------------------|-------------||
-------------------------------|-------------||
-------------------------------|-------------||









Harpsichord LH - transcribed for guitar

 
E||---------|-----------|------------|------------|-----------|-----------|
B||---------|-----------|------------|------------|-----------|-----------|
G||---------|-----------|------------|------------|-----------|-----------|
D||---------|--------2--|--1------0--|------------|--------1--|--2--0-----|
A||---------|-----------|------------|--4------3--|--2--4-----|--------4--|
E||---------|-----0-----|------------|------------|-----------|-----------|


--------------------------|----------------|----------------|
----------------0---------|----------------|----------------|
------------1-3---3-1-----|----------0-----|----------------|
------0-2-4-----------4-2-|--0---------4-3-|--3-4-----3-2-1-|
--2-4---------------------|----4-2---------|----------------|
--------------------------|----------------|------2---------|

 
----------------0-------|--------------------|----------------0---------|
--------------0---3-2-0-|----2-3--0------2---|------------------3-2-3---|
------------0-----------|--3-----------------|--------0-0-------------1-|
--1-2-----2-------------|-----------3--2---2-|--2---0-----2-4-----------|
------------------------|--------------------|----4---------------------|
------0-----------------|--------------------|--------------------------|

  
-----------|--------------------------|-----------|--------------------------|
--1--------|----------------1-0---0---|-----------|--------------------------|
-----------|--------------------2-----|--2--------|----------------2-0---0---|
-----------|--------4-4-1-2---------2-|-----------|--------------------4-----|
--------3--|--L-0-2-------------------|--------0--|--L-----3-3-0-2---------4-|
-----------|--------------------------|-----------|----2-3-------------------|


-----------|----------------0---------|--------------------------|
-----------|----------0-2-4---4-2-0---|--------------0-1-0-------|
-----------|------0-2---------------2-|--0-------0-2-------2-0---|
--4--------|--2-4---------------------|----4-2-4---------------4-|
--------2--|--------------------------|--------------------------|
-----------|--------------------------|--------------------------|

  
----------------0---------|--------------------------|------0-----|-----------|
----------0-2-4---4-2-0---|--------------0-1-0-------|------------|-----3-----|
------0-2---------------2-|--0-------0-2-------2-0---|------------|-----------|
--2-4---------------------|----4-2-4---------------4-|--2------2--|--1-----0--|
--------------------------|--------------------------|------------|-----------|
--------------------------|--------------------------|------------|-----------|


-----------|-----------|------------|-----------|------------|
-----------|-----------|------------|-----------|------------|
-----5-----|-----------|--------1---|-----------|------------|
-----------|--------1--|--2--4------|-----------|--0--2--4---|
--4-----3--|--2--4-----|------------|--0--2--4--|------------|
-----------|-----------|------------|-----------|------------|

 
--------------------------|----------------|----------------|
--------------------------|----------------|----------------|
----------------0---------|----------------|----------------|
----------0-2-4---4-2-0---|----------1-0---|----0-----------|
----0-2-3---------------3-|--2-0---------4-|--4-------4-3-2-|
--3-----------------------|------3---------|----------------|


------------------------|--------------------|--------------------------|
----------------1-------|--------------------|--------------------------|
--------------0---3-2-0-|----2-3--0------2---|----------------2-0---0---|
------------1-----------|--4-----------------|--------2-2---0-----4-----|
--2-3-----3-------------|-----------4--3---3-|--3-0-2-----4-----------4-|
------------------------|--------------------|--------------------------|


--------------------------|----------------|------------|------------|
----------------0-2-3-2-0-|-------------3--|--2------1--|--0---------|
------------0-2-----------|--2-0-----------|------------|---------3--|
--4-2-0-2-4---------------|------4-2-0-----|------------|------------|
--------------------------|----------------|------3-----|------1-----|
--------------------------|----------------|------------|------------|


-----------|-----------|--------------------------|-----------|
-----0--2--|--3--------|----------------3-1-0-1---|--0--------|
--2--------|-----------|--------------------------|-----------|
-----------|--------0--|--L-----3-3-1-2---------4-|-----------|
-----------|-----------|----2-3-------------------|--------2--|
-----------|-----------|--------------------------|-----------|

     
--------------------------|-----------|--------------------------|-------------|
----------------0---------|-----------|--------------------------|-------------|
------------------2-0-2---|--0--------|--------------------------|-------------|
--------0-0-------------1-|-----------|----------------4-2-0-2---|--0----------|
--L---0-----2-3-----------|-----------|--------2-2---1---------1-|----4-2------|
----4---------------------|--------3--|--L-1-2-----4-------------|-------------|


--------------------------|--------------------------|
----------------0---------|--------------------------|
------------1-3---3-1-----|----------------0---------|
------0-2-4-----------4-2-|--0-------0-2-4---4-2-0---|
--2-4---------------------|----4-2-4---------------4-|
--------------------------|--------------------------|


--------------------------|----------------|----------------|
----------------0---------|----------------|----------------|
------------1-3---3-1-----|----------0-----|----------------|
------0-2-4-----------4-2-|--0---------4-3-|--3-4-----3-2-1-|
--2-4---------------------|----4-2---------|----------------|
--------------------------|----------------|------2---------|


----------------0-------|--------------------|--------------------|
--------------0---3-2-0-|----2-3--0------2---|--------------------|
------------0-----------|--3-----------------|------0-----------2-|
--1-2-----2-------------|-----------3--2---2-|--1-4----2------4---|
------------------------|--------------------|-----------1--2-----|
------0-----------------|--------------------|--------------------|


--------------------|--------------------|-------------------|
----0-1---------0---|--------------------|-------------------|
--1------2----------|------------------0-|-------------------|
-----------1--0---0-|----2-3--0------2---|--3-2-0------0-2-3-|
--------------------|--4-----------0-----|-------------------|
--------------------|-----------4--------|-------------------|


--------------------------|-------------------|----------------0---------|
--------------------------|---------------0-1-|----------0-2-4---4-2-0---|
--------------------------|-------------2-----|------0-2---------------2-|
--2-0---------------------|----0-2------------|--0-4---------------------|
------3-2-0-----------0-2-|--3----------------|--------------------------|
------------4-2-0-2-4-----|-------------------|--------------------------|


--------------------0-----|-------------0--|------------|------------|
--------------0-2-4---4-2-|--0-------------|--4------3--|--2------1--|
--0-------0-2-------------|----2-0---------|------------|------------|
----4-2-4-----------------|--------4-2-----|------0-----|------------|
--------------------------|----------------|------------|------3-----|
--------------------------|----------------|------------|------------|


-----------|----------------0---------|----------------|----------------|
--0--2--4--|----------0-2-4---4-2-0---|----------1-0---|----0-----------|
-----------|------0-2---------------2-|--0-----------3-|--3-------3-2-1-|
-----------|--2-4---------------------|----4-2---------|----------------|
-----------|--------------------------|----------------|------2---------|
-----------|--------------------------|----------------|----------------|


------------------------|--------------------|-----------|------------|
------------------------|--------------------|-----------|------------|
--1-2-----------2-0-----|------0-------------|-----------|------------|
--------------2-----4-2-|--1-4----2------4---|-----------|------------|
------0---0-3-----------|-----------1--0---0-|-----------|----3-0--2--|
------------------------|--------------------|--4--3--2--|--0---------|


------------||
------------||
------------||
------------||
------------||
--0----L----||




Duration Legend
---------------
W - whole
H - half
Q - quarter
E - 8th
S - 16th
T - 32nd
X - 64th
. - note dotted
|-n-|  - n-tuplets


Tablature Legend
----------------
L - tied note
x - dead note
g - grace note
(n) - ghost note
> - accentuded note
NH - natural harmonic
AH - artificial harmonic
TH - tapped harmonic
SH - semi harmonic
PH - pitch harmonic
h - hammer on
p - pull off
b - bend
br - bendRelease
pb - preBend
pbr - preBendRelease
brb - bendReleaseBend
\n/ - tremolo bar dip
\n - tremolo bar dive
-/n - tremolo bar Release up
/n\ - tremolo bar inverted dip
/n - tremolo bar return
-\n - tremolo bar Release down
S - shift slide
s - legato slide
/ -  slide into from below or out of upwards
\ -  slide into from above or out of downwards
~ - vibrato
W - wide vibrato
tr - trill
TP - tremolo picking
T - tapping
S - slap
P - pop
< - fade in
^ - brush up
v - brush down
Добавлено: 02.07.2012
Другие материалы по этой песне:

Страница создана 12.03.2012
http://primanota.ru/johann-sebastian-bach/bwv-802-duetto-i-in-e-minor-chords.htm
Привет, Гость.
Предлагаем пройти революционный курс по гитаре.
Подарок от PrimaNota.Ru, забирай!