PrimaNota.ru - самый крупный в мире бесплатный архив песенных текстов, аккордов, табулатур и нот


Бах Иоганн Себастьян - Bwv 785 - Two-part Invention No 14 In Bb - таба, видео

Регистрация Запомнить меня
Войти через:  Facebook Google Twitter Vk Yandex Mail.ru

Бах Иоганн Себастьян - Bwv 785 - Two-part Invention No 14 In Bb - таба, видео

Печатать
Просмотров: 131
Two Part Invention - No 14 in Bb Major - BWV 785 - JS Bach

Tuning : E A D G B E - Time Signature: 4/4

 |       |       |       |        |       |       |       |        
|------------------------3-------|--------------------------------|
|--------0-------3---0-------3---|0---3-1-0-1-3-------0-----------|
|----0-2---2-0-------------------|----------------0---------------|
|------------------------0-------|------------------------0---3---|
|----------------2---------------|--------------------------------|
|3-------3-----------------------|3-------------------------------|

 |       |       |       |        |       |       |       |        
|--------------------------------|--------------------------------|
|------------------------1-------|--------------------------------|
|----------------0-----------0---|----0-------0-------------------|
|2-----0-2-0---------2-----------|2-----3-2-3---------2-----------|
|----3-------3---0---------------|----------------3-------0---3---|
|--------3---------------0-------|3-------------------------------|

 |       |       |       |        |       |       |       |        
|--------------------------------|--------------------------------|
|--------------------------------|1-----------------------3-------|
|------------------------2-------|----------------2-----------2---|
|----------------4---0-------4---|----0-2-4-2-0-------4-----------|
|----0-2-3-2-0-----------3-------|--------------------------------|
|2-------3-------2---------------|2-------------------------------|

 |       |       |       |        |       |       |       |        
|--------------------0-------0---|--------------------------------|
|0---------------------3-1-3-----|--------------------3-1-0-1-3---|
|--------------------------------|2-------------------------------|
|--------------------------------|--------------------------------|
|------0-2-0-----3---------------|--------0-------2---------------|
|----3-------3-------------------|----2-3---3-2-------------------|

 |       |       |       |        |       |       |       |        
|--------------------------------|--------------------------------|
|--------------------1-0---0-1---|--------------------------------|
|0-----------------------2-------|----2-0---0-2-------2-----------|
|--------------------------------|4-------4-------0-------4---0---|
|----------------0-------3-------|--------2-----------------------|
|----0-2-3-2-0-------------------|--------------------------------|

 |       |       |       |        |       |       |       |        
|--------------------------------|--------------------------------|
|3-------------------------------|3-------------------------------|
|------------------------2-------|----2-0---0-2-------------------|
|--------0-------4-------0-------|4-------4-------0---4-----------|
|----0-----------0-----------0---|------------------------0---3---|
|------3-2-0-2-------2-----------|--------------------------------|

 |       |       |       |        |       |       |       |        
|--------------------------------|--------------------------------|
|------------------------0-------|3-------------------------------|
|----------------0-------0-------|--------------------------------|
|--------0-------0-----------0---|----0-------0-------------------|
|2-----0-2-0---------2-----------|2-----3-2-3---------2-----------|
|----3-------3-------------------|----------------3-------0---3---|

 |       |       |       |        |       |       |       |        
|--------------------------------|--------------------------------|
|--------------------------------|2-------------------------------|
|----------------0-------2-------|------------------------2-------|
|--------2---------------2-------|----------------2-----------2---|
|4---------------4---0-------4---|----0-2-4-2-0-------4-----------|
|----0-2-3-2-0-------------------|3-------------------------------|

 |       |       |       |        |       |       |       |        
|--------------------------------|2-------------------------------|
|------------------------3-------|----1-0---0-1---------------0---|
|----------------2-----------2---|--------2-----------2-----------|
|4---0-2-4-2-0-------4---0-------|1---------------4-------1-------|
|--------0-----------------------|----------------0-------2-------|
|----------------2---------------|--------2-----------------------|

 |       |       |       |        |       |       |       |        
|--------------------------------|--------------------------------|
|--------0-----------------------|--------3-----------------------|
|0---------------0---------------|--------------------------------|
|2-----------------------2-------|3---------------3-------0-------|
|----------------2-----------2---|0---------------2-----------2---|
|----0-2-3-2-0-------3---0-------|----1-3-1-0-1-------0---3-------|

 |       |       |       |        |       |       |       |        
|--------------------------------|--------------------------------|
|--------------------------------|0-------------------------------|
|------------------------2-------|--------------------------------|
|2---------------2-----------2---|----3-2-0-2-3-------0-------2---|
|3---0-2-3-2-0-------3---0-------|--------2-------2---------------|
|--------0-------0---------------|4---------------4-------4-------|

 |       |       |       |        |       |       |       |        
|--------------------------------|5-------------------------------|
|----------------------0-1-0-----|--------------------------------|
|--------------------2-------2---|--------------------------------|
|----------------2---------------|4-----2-4-2-5---4-----2-4-2-----|
|3---0-2-3-2-0-------------------|----5-------5---2---5-------5---|
|0-------------------------------|----------------------------8---|

 |       |       |       |        |       |       |       |        
|--------------------------------|3-----------1---0---3-1-0-1-3---|
|3-----------1---0-------0-------|----------------1-----------0---|
|--------------------0-2---2-0---|--------------------------------|
|----------------------------3---|2-----0-2-0---------------------|
|2-----0-2-0---------------------|----3-------3-------------------|
|----3-------3---0---------------|--------------------------------|

 |       |       |       |        |       |       |       |        
|----0-------0-------------------|--------------------------------|
|1-----3-1-3---------1-0---0-1---|------0-1-0-----3---------------|
|----------------2-------2-------|----2-------2-------------------|
|--------------------------------|0-------------------3-2-0-2-3---|
|0-------0-----------------------|--------0-------2-------2-------|
|----------------2-------2-------|--------------------------------|

 |       |       |       |        |       |       |       |        
|--------------------------------|--------------------------------|
|--------0-------1---------------|----------------0---------------|
|----0-2---2-0-------------------|------0-2-0---------------------|
|2-------------------2-0---0-2---|----4-------4-------0-------0---|
|3---------------0-------3-------|3---------------------3-2-3-----|
|--------3-----------------------|3-------2-------3-------3-------|

 |       |       |       |        |       |       |       |        
|--------------------------------|--------------------------------|
|--------------------------------|------------------------0-------|
|--------0-------2---------------|--------------------0-2---2-0---|
|----2-4---4-2-------------------|----------------0-----------0---|
|0-------------------3-2-0-2-3---|2-----0-2-0---------2-----------|
|--------0-------2-------2-------|0---3-------3-----------3-------|

 |       |       |       |        |       |       |       |        
|--------3-----------------------|--------------------------------|
|3---0-------3---0---3-1-0-1-3---|----1-------1-------------------|
|--------------------------------|0-------0-----------------------|
|----0-------0-----------0-------|2-----0-2-0-----2-----0-2-0-----|
|2-----3-2-3---------2-----------|----3-------3-------3---3---3---|
|----------------3-----------1---|----------------3---0-------3---|

 |       |       |       |        |       |       |       |        
|--------------------------------|--------------------------------|
|--------1-----------------------|--------1-----------1-0---0-1---|
|0-----------0-------0-------0---|------------------------2-------|
|----2-----------2-----3-2-3-----|----0-2-4-2-0-------------------|
|----------------3-----------2---|3---------------0-------3---0---|
|0---3-1-0-1-3-------0---3-------|--------------------2-----------|

 |       |       |       |        |       |       |       |        
|--------------------------------|--------------------------------|
|--------1-------------0-1-0-----|3---0-------0-------------------|
|--------------------2-------2---|------2-0-2---------0---2-------|
|0---------------0---4-----------|----------------0-----------4---|
|----0-------0-----------0---3---|2-----------------------0-------|
|2-----3-2-3---------------------|--------3-------2---------------|

 |       |       |       |        |       |       |       |        
|--------------------------------|-------------------------------||
|--------------------------------|-------------------------------||
|0-------------------------------|-------------------------------||
|--------------------------------|-------------------------------||
|--------------------------------|-------------------------------||
|3-------------------------------|-------------------------------||


Добавлено: 26.03.2012
Другие материалы по этой песне:
  • Аккорды и текст

Страница создана 26.03.2012
http://primanota.ru/johann-sebastian-bach/bwv-785-two-part-invention-no-14-in-bb-chords.htm
Привет, Гость.
Предлагаем пройти революционный курс по гитаре.
Подарок от PrimaNota.Ru, забирай!