PrimaNota.ru - самый крупный в мире бесплатный архив песенных текстов, аккордов, табулатур и нот


Бах Иоганн Себастьян - Bwv 784 - Invention No 13 - таба, видео

Регистрация Запомнить меня
Войти через:  Facebook Google Twitter Vk Yandex Mail.ru

Бах Иоганн Себастьян - Bwv 784 - Invention No 13 - таба, видео

Печатать
Просмотров: 177
                                   JOHANN SEBASTIAN BACH
                                 BWV 784 - Invention No. 13



Harpsichord 1 - Main melody (Transcribed for guitar)


     S S S S S S S  S E   E  E   E      S S  S S S S S  S E   E  Q     
E||------5-8-7---7-10-8--12-----12--|----------8-7---7-10-8-----------|
B||----5-------5-------------9------|--10---10-----5---------10-------|
G||---------------------------------|-----9---------------------------|
D||---------------------------------|---------------------------------|
A||---------------------------------|---------------------------------|
E||---------------------------------|---------------------------------|


  S  S  S  S  S S S S  E   E   E   E     S  S  S  S  S  S  S  S E  E  E   E   
----12----12----8-------------10--13--|--L-10----10-------------------8--12--|
-------13----10-----8-----10----------|-------12-------12----------8---------|
------------------9---10--------------|-------------12-------10-9------------|
--------------------------------------|-------------------12-----------------|
--------------------------------------|--------------------------------------|
--------------------------------------|--------------------------------------|


  S S  S S  E   E.  S S S E  E     S S S S E  E  E  Q.      
--L-8----8-----10---7---7----8--|--L-5---5----7--8---------|
------10--------------8---5-----|------6---3---------------|
-----------10-------------------|--------------------------|
--------------------------------|--------------------------|
--------------------------------|--------------------------|
--------------------------------|--------------------------|


  S S S  S  S  S  S  S  E   E   E   E   
------8-12-10----10-13-12--15------15--|
----8--------------------------12------|
--------------12-----------------------|
---------------------------------------|
---------------------------------------|
---------------------------------------|


   S  S  S  S  S  S  S  S  E   E   E   E   
-----------12-10----10-13-12------15--12--|
--13----13--------------------13----------|
-----12----------12-----------------------|
------------------------------------------|
------------------------------------------|
------------------------------------------|


   S  S  S  S  S  S  S  S  E   E   E   E   
--20-17----17-----------------14--17--20--|
--------17-------17----13-15--------------|
--------------17----14--------------------|
------------------------------------------|
------------------------------------------|
------------------------------------------|


   S  S  S  S  S  S  S  S  E   E   E   E   
--19------------------------------15--19--|
-----20----20-----------------17----------|
--------19-------19----16-17--------------|
--------------21----17--------------------|
------------------------------------------|
------------------------------------------|


   S  S  S  S  S  S  S  S  E   E.   S  S  S  
--17-------14-----------------15---12----12-|
-----19-16-------16-------------------13----|
--------------16-------14-12----------------|
--------------------16----------------------|
--------------------------------------------|
--------------------------------------------|


   E   E.   S  S  S  E   E.   S  S  S     S  S  S  S  S  S  S  S  E  Q.      
------14---10----10-----12------------|-----15-14-12-11-14----11-12---------|
--10----------12-------------13----13-|--------------------12---------------|
--------------------12----------14----|--11---------------------------------|
--------------------------------------|-------------------------------------|
--------------------------------------|-------------------------------------|
--------------------------------------|-------------------------------------|


  S  S  S  S  S  S  S  S  S  S  S  S  S E.   
----15-18-15----15----12-15-12----12--------|
-------------17----14----------14-----------|
-------------------------------------14-----|
--------------------------------------------|
--------------------------------------------|
--------------------------------------------|


  S  S  S  S  S  S  S  S  S  S  S  S  S E.   
----13-16-13----13----10-13-10----10--------|
-------------15----12----------12-----------|
-------------------------------------12-----|
--------------------------------------------|
--------------------------------------------|
--------------------------------------------|


  S  S  S  S  S  S  S S  S S  S S S E.     S  S  S  S  S  S S S  S S S S S E.   
----12-15-12----12----8-11-8----8-------|----10-13-10----10---7-10-7---7-------|
-------------13----10--------10---7-----|-------------12----9--------9---------|
----------------------------------------|--------------------------------9-----|
----------------------------------------|--------------------------------------|
----------------------------------------|--------------------------------------|
----------------------------------------|--------------------------------------|


  S S S S S S S  S E   E  E  E      S S  S S  S S S S S S S S S S S S  
------5-8-7---7-10-8------------|-----8-12-8----8---5-8-5---5---8-7-5-|
----5-------5---------10--9-----|--10--------10---7-------7---4-------|
-----------------------------9--|-------------------------------------|
--------------------------------|-------------------------------------|
--------------------------------|-------------------------------------|
--------------------------------|-------------------------------------|


  S S  S S S S S S S S S S S S S S    S S S S S S S S S S S S S S S S  
----7-10-7---7-----4---------------|------5---------------------------|
--9--------9-----6---6-3-6---6-5-3-|----5---5---5-----4---------------|
---------------7-----------4-------|--5-------5-----5---5---5---5-4-2-|
-----------------------------------|--------------7-------7---4-------|
-----------------------------------|----------------------------------|
-----------------------------------|----------------------------------|


  E  E  E  E  S S S S S S S  S    S  S S  S  S  S  S  S  S  S  S  S  S  S  S S  
-----7--4---------5-8-7---7-10-|--8----8-12-10----10-13-12----12-15-13-12-10-8-|
-----------5----5-------5------|----10---------12----------13------------------|
-------------------------------|-----------------------------------------------|
--6----------------------------|-----------------------------------------------|
-------------------------------|-----------------------------------------------|
-------------------------------|-----------------------------------------------|


   S  S  S  S  S  S  S  S  S  S  S  S  S  S  S  S  
--------10-12-13-10-16----19-------17-------------|
--12-13----------------15-------------18-------15-|
-----------------------------19-17-------19-16----|
--------------------------------------------------|
--------------------------------------------------|
--------------------------------------------------|


   S  S  S  S  S  S  S  S  S  S  S  S  Q      
--------------------------------------------||
-----12-13----------12----------------------||
--13-------14----14----13-14----------------||
--------------14-------------14----14-------||
--------------------------------15----12----||
--------------------------------------------||









Harpsichord 2 (Transcribed for guitar)



     E  Q    E  S S S S S S S S    E  E  E  E  S S S S S S S S  
E||-----------------------------|------------------------------|
B||-------------------1-0---0-3-|--1-----------------1-0---0-3-|
G||-----2----1--2---2-----------|-----2--1-----2---2-----------|
D||---------------2-------2-----|-----------2----2-------2-----|
A||--0--------------------------|------------------------------|
E||-----------------------------|------------------------------|


  E  E  E  E  S S S S S S S S    E  E  E  E.  S S S S S S S  
------------------------------|-----------------------------|
--1-----1-----3---------------|-----------0-----------------|
-----2-----2----2---2---------|--------0------0---0---------|
------------------3---0-3-----|-----0-----------2-----2-----|
--------------------------0-3-|--2------------------3-----2-|
------------------------------|-------------------------3---|


  E  E  S S S S E  E  S S S S    E  E  S S S S S S S S S S S S  
------------------------------|----------------------0-------1-|
------------------------------|--------------------1---3---3---|
------------------------------|----------0---0---0-------0-----|
--------0-3---0---------2-----|------------3-------------------|
--0--3------2------2--3---0-3-|----------------3---------------|
----------------3-------------|--1-----3-----------------------|


  E  E  E  E  S S S S S S S S    E  E  Q    S S S S S S S S  
--0-----------------0-------1-|--0------------3-0-3---0-----|
-----1--0-----1---1---3---3---|-----1---------------1-----0-|
-----------0----0-------0-----|-------------------------0---|
------------------------------|-----------------------------|
------------------------------|-----------------------------|
------------------------------|-----------------------------|


  E  E  E  E  S S S S S S S S    E  E  E  E  S S S S S S S S  
--------0--3--2-5---2---------|-----------2--0-3---0---------|
-----1------------3-----3-----|-----0--3---------1-----1-----|
--2-------------------2-----2-|--0-------------------0-----0-|
--------------------------4---|--------------------------2---|
------------------------------|------------------------------|
------------------------------|------------------------------|


  E  E  E  E  S S S S S S S S    S S S S S S S S S S S S S S E   
----------------0---0-----0-3-|--2-------------2-0--------------|
--------0--4------1-----1-----|----3-0-3---0-3-----1---1-----1--|
-----2----------------2-------|----------0-----------2-----2----|
--4---------------------------|--------------------------4------|
------------------------------|---------------------------------|
------------------------------|---------------------------------|


  S S S S E  E  S S S S S S S S    E  E  E  E  E  E.  S S S  
------------------0-------------|---------------------3-1-0-|
--L-0-1---0---------0-----------|---------------------------|
--------2-------------0---------|--------0--3---------------|
----------------2-------2-------|-----2---------------------|
-------------2------------2---2-|--------------4------------|
----------------------------3---|--0------------------------|


  E  E  E  E  E  E.  S S S    E  E  E  E  E  E.  S S S  
---------------------1-0---|---------------------0-----|
--3----------------------3-|--1--------------------4-2-|
-----------1---------------|---------------------------|
-----0--3------------------|--------2--4---------------|
--------------2------------|-----3--------0------------|
---------------------------|---------------------------|


  E  E  E  E  E  E.  S S S    E  E  E  E  S S S S S S S S  
---------------------------|------------------------------|
--0------------------3-1-0-|--1-----------------1-0---0-3-|
---------------------------|-----2--1-----2---2-----------|
--------0--3---------------|-----------2----2-------2-----|
-----2---------------------|------------------------------|
--------------4------------|------------------------------|


  S S S S S S S S S S S S S S S S    E  E  E  E  E  E  E  E   
----0-5-0---0---------------------|--------------------------|
--1-------------1-----1-----------|--------0-----------------|
----------5---2-----2---2---2-----|-----1-----1--------------|
------------------4-------4---1-4-|--2-----------2-----------|
----------------------------------|-----------------2--------|
----------------------------------|--------------------4--0--|


  E  E  E  E  E  E  E  E     S S S S S S S S E  E  E  E   
--------------------------|------------------------------|
--------------------------|----0-------0-----------------|
--------------------------|------1-------1---------------|
--------2-----------------|--------2-0-----0----2-----2--|
--0--3-----3--0--3--------|------------------3-----------|
--------------------------|------------------------4-----|


  E  E  E  E  E  E  E  E     E  E  E  E  E  E  E  E     E  E  E  E  H          
--------------------------|--------------------------|-----------------------||
--------------------------|--------------------------|-----------------------||
-----------1-----2-----3--|--1-----------------------|-----------------------||
-----4--------------0-----|-----3--0-----------------|-----------2-----------||
--0-----2-----3-----------|-----------2-----0--------|--------------0--------||
--------------------------|--------------4--------0--|--1-----0--------------||





Duration Legend
---------------
W - whole
H - half
Q - quarter
E - 8th
S - 16th
T - 32nd
X - 64th
. - note dotted
|-n-|  - n-tuplets
L - tied note
Добавлено: 19.05.2012
Другие материалы по этой песне:

Страница создана 09.04.2012
http://primanota.ru/johann-sebastian-bach/bwv-784-invention-no-13-chords.htm
Привет, Гость.
Предлагаем пройти революционный курс по гитаре.
Подарок от PrimaNota.Ru, забирай!