PrimaNota.ru - самый крупный в мире бесплатный архив песенных текстов, аккордов, табулатур и нот


Бах Иоганн Себастьян - Bwv 639 - Ich Ruf Zu Dir Herr Jesu Christ - таба, видео

Регистрация Запомнить меня
Войти через:  Facebook Google Twitter Vk Yandex Mail.ru

Бах Иоганн Себастьян - Bwv 639 - Ich Ruf Zu Dir Herr Jesu Christ - таба, видео

Печатать
Просмотров: 902
Ich ruf' zu dir, Herr Jesu Christ - BWV 639 - J S Bach (1685-1750)
version 1 - by Curzio Vasapollo, in Em (3 Apr 2008)
version 2 - by Curzio Vasapollo, in Cm (24 Jul 2003)
version 3 - by Curzio Vasapollo, in Bm (24 Jul 2003)
******************************************************************************

Ich ruf' zu dir, Herr Jesu Christ - BWV 639 - J S Bach (1685-1750)

tabbed 2008/4/3 Curzio Vasapollo curzio@hotmail.com

TablEdited
 
Tuning : E A D G B E    Key : Em    Time Signature: 4/4

 |       |       |       |        |       |       |       |        
|7---0---3-------5-------3-----2-|0-----2-3-5-3-5-757575757-------|
|--0---4---0---------1-0-----0---|------0---4---------4---4-0-----|
|0-----------0-----2-------0---2-|0---0-------------------------2-|
|--------2---2-2-4---1---2---2---|2-2-0-----------------------4---|
|--------------------------------|--------3---3---3---3---2---2---|
|0---0---0---0---0-------0---0---|0-------------------------------|

 |       |       |       |        |       |       |       |        
|7---0-8-10--3-2-8-7-0-5-3---0-3-|5---7---8-----0-5-10127-7-------|
|--0-----0---0---0---0---0-1-0---|------6-----1-------------0-4---|
|0---------7-------7-------------|2-5-4-------0-----------------2-|
|--------------------------------|----6---7-7-----4---------------|
|7---7-------2-----------2---2---|0-------0-----------7---6---2---|
|0---0---7-------7---7-----------|----4-------3---2---0-----------|

 |       |       |       |        |       |       |       |        
|7---0---3-------5-------3-----2-|0-----2-3-5-3-5-75757-0-7-------|
|--0---4---0---------1-0-----0---|------0---4---------4---4-0-----|
|0-----------0-----2-------0---2-|0---0-------------------------2-|
|--------2---2-2-4---1---2---2---|2-2-0-----------------------4---|
|--------------------------------|--------3---3---3---3---2---2---|
|0---0---0---0---0-------0---0---|0-------------------------------|

 |       |       |       |        |       |       |       |        
|7---0-8-10--3-2-8-7-0-5-3---0-3-|5---7---8-----0-5-10107-7-----0-|
|--0-----0---0---0---0---0-1-0---|------6-----1-------------------|
|0---------7-------7-------------|2-5-4-------0---------------0---|
|--------------------------------|----6---7-7-----4---------7-2---|
|7---7-------2-------2---2---2---|0-------0-----------7---6-------|
|0---0---7-------7---------------|----4-------3---2---0-------0---|

 |       |       |       |        |       |       |       |        
|10------12------10--108-7---5-2-|3-0-5-2-7-----1-5-------3-------|
|------0---0---1-----------3-1---|0---------------------1-0---0-3-|
|----0---0---2-----------0-------|----------7-0-----0-------0-----|
|-10-------------710-0-------0---|2-------0-----------4-----------|
|9-----------3---5---------------|----3-------2---3---------------|
|7---7---8---------------3-------|0-----------------------3---3---|

 |       |       |       |        |       |       |       |        
|7-----2-7---0-2-7-0---4-5-2-3-2-|3-0-2-0-2-0-2-0---------0---0---|
|--0-------0---------3-----------|0-------1-------4---1-0---0---4-|
|----2-------------------5-------|------------------2-----0-------|
|----1---6-----------2---2---1---|2-------------------------------|
|6---------------7---------------|----3---0-------2---2---3---3---|
|--------0---0---0---0---0-------|0-----------2-------------------|

 |       |       |       |        |       |       |       |        
|0-------3-0-2-0-2-0-2-0-0-0-2-0-|--------------------------------|
|--0---------------------0-------|2-----2-3-0-3-1-----1-0-----0---|
|----0---2-------2---------------|----3-------------2-------0---2-|
|------2---------0---0-----------|--4-----4-------4-------0-------|
|3---3---4---4-------------------|1---1---2---2---0---0-----------|
|------------------------4---4---|------------------------3---3---|

 |       |       |       |        |       |       |       |        
|--------3-------3-------5-------|5-------7-----3---5-7---4---1---|
|3-----1-----1-0-----0-----------|----1-0---0-3---3----10---3-----|
|--2-------0-------0---2---0-2-0-|--2-----0---------------------1-|
|----0---2-------2---0---2-------|4---0---------------------------|
|------------------------4---4---|--------------------8-----------|
|2---2---0---0-------------------|--------3---3---1-------0---0---|

 |       |       |       |        |       |       |       |        
|8-----0-7---0---5-------3-------|0-0-2-2-3-0-2-0-2-------0---0--||
|--7-------4---3-----3-1---0-1-0-|--------2-------4---------0----||
|----0-------------5-------------|2-----------------5-2---1------||
|7-------4-------2-------0-------|----------------------4--------||
|0---0---0-----------------------|3---3---1---1---2---2----------||
|------------3---3---2---2---0---|------------------------0------||

******************************************************************************
******************************************************************************

Ich ruf' zu dir, Herr Jesu Christ - BWV 639 - J S Bach (1685-1750)

Curzio Vasapollo 2003/07/24 curzio@hotmail.com
 
Tuning : E A D G B E    Key : Cm    Time Signature: 4/4

 |               |               |               |                
|3-------------------------------1-------------------------------|
|--------1---0---4-------------------------------4-----------3---|
|----0---------------0-------------------1---0-----------0-------|
|1-----------------------1-------0---3---------------1-------3---|
|3-------3-------3-------3---3---3-------2-------3-------3-------|
|----------------------------------------------------------------|

 |               |               |               |                
|--------------------1-------1---3-1-3-3-3-31-1--3---------------|
|1-----------3---4---0---4---4---3---1---0---4---0---------------|
|------------0---------------------------------------0-----------|
|1-------1-----------------------------------------------0---3---|
|3---3---1-------------------------------------------------------|
|----------------4-------4-------4-------4-------3-------3-------|

 |               |               |               |                
|3-----------4---6---------------4---3---------------------------|
|------------4---3-------4---3---4-----------6---4-----------4---|
|--------5-----------3---------------3---5---------------5-------|
|----5-----------5-------5-------5---------------5---6-----------|
|6-------3-------------------------------------------------------|
|----------------3-------3-------3-------3-------3-------3-------|

 |               |               |               |                
|1-------3-------4---------------1---6-8-------------------------|
|------------2---------------1-----------911-8---8---------------|
|----1---0---------------1-----------8---7---------------4-------|
|3---------------3---3-----------0-------------------5-------3---|
|----------------------------------------------------------------|
|1-------0-------1-----------------------8-------7-------3-------|

 |               |               |               |                
|3-------------------------------1-------------------------------|
|--------1---0---4-------------------------------4-----------3---|
|----0---------------0-------------------1---0-----------0-------|
|1-----------------------1-------0---3---------------1-------3---|
|3-------3-------3-------3---3---3-------2-------3-------3-------|
|----------------------------------------------------------------|

 |               |               |               |                
|--------------------1-------1---3-1-3-3-3-3-----3---------------|
|1-----------3---4---0---4---4---3---1---0---1---0---------------|
|------------0---------------------------------------0-----------|
|1-------1-----------------------------------------------0---3---|
|3---3---1-------------------------------------------------------|
|----------------4-------4-------4-------4-------3-------3-------|

 |               |               |               |                
|3-----------4---6---------------4---3---------------------------|
|------------4---3-------4---3---4-----------6---4-----------4---|
|--------5-----------3---------------3---5---------------5-------|
|----5-----------5-------5-------5---------------5---6-----------|
|6-------3-------------------------------------------------------|
|----------------3-------3-------3-------3-------3-------3-------|

 |               |               |               |                
|1-------3-------4---------------1---6-8-6-6---------------------|
|------------2---------------1---------------8---8---------------|
|----1---0---------------1-----------8---7-------------------5---|
|3---------------3---3-----------0-------------------------------|
|----------------------------------------------------8---6-------|
|1-------0-------1-----------------------8-------7---------------|

 |               |               |               |                
|6---------------8---------------6-------6-----------------------|
|------------------------------------------8-9---8-------6-------|
|----------------------------------------8-------------------7---|
|----6-------5-------5-------6-------6---------------8---6-------|
|5-------6-------6-------8-------8---------------6---------------|
|3-------3-------4-------4---------------6---------------6-------|

 |               |               |               |                
|--------1-------3---------------1-------------------------------|
|4---1---4---3---4-----------2---1---------------4---------------|
|0-------------------3-----------------------1---0-------0---3---|
|------------------------1-----------1---0-------1---1---1-------|
|3---------------1-----------------------1-----------------------|
|--------4---------------3-------4-------------------------------|

 |               |               |               |                
|3---------------3---------------3-----------0---1---------------|
|3-----------3-----------1---3-------1---------------3---4---3---|
|----0---------------0-------------------3-------1---------------|
|--------3-------2-----------------------------------------------|
|2-------2-------3-------3-------3-------3-------3-------2-------|
|----------------------------------------------------------------|

 |               |               |               |                
|----------------------------------------------------------------|
|4---1---3---1---3---1---3---1---0---------------1-------1---0---|
|0---------------1-----------------------1---0-------0-----------|
|------------------------0-----------3-----------1---------------|
|3---------------------------------------------------------------|
|--------4-------1---------------3-------3-------4-------4-------|

 |               |               |               |                
|----------------------------------------------------------------|
|----------------4---1---3---1---3---1---3---1---1---1---3---1---|
|----0-------------------------------------------0---------------|
|--------1-------3---------------3-------------------------------|
|------------3---0-------0-------1-------1-----------------------|
|4-------4---------------------------------------0-------0-------|

 |               |               |               |                
|----------------------------------------------------------------|
|----------------------------------------------------------------|
|2-----------2---3---0---3---1-----------1---0-----------0-------|
|----0---4-------0---------------0---3-----------1---1---1---3---|
|------------------------------------------------1---------------|
|2-------2-------3-------3-------1-------1-----------------------|

 |               |               |               |                
|------------------------------------------------1---------------|
|----------------4---------------4-------------------------------|
|3-----------1-----------1---0-----------0-----------------------|
|0---3---0-----------1---------------1-------3-------1---3---1---|
|--------1-------3-------3-------3-------1-------3-------0-------|
|----------------------------------------------------------------|

 |               |               |               |                
|1---------------3-------------------1---3---1---0---------------|
|----------------------------4---------------------------2-------|
|--------1---0-------0---3-------3-------------------3-----------|
|0---3-----------1-------1-----------------------------------2---|
|1-------1-----------------------4-------4-------3-------3-------|
|----------------------------------------------------------------|

 |               |               |               |                
|4---------------3---------------1-------------------------------|
|----3-------1-----------1-----------------------4---------------|
|--------------------4-------3-------1---3---------------1---0---|
|3-------1-------0-------1-------1-----------6-------5-----------|
|--------------------------------3-------5-------5-------3-------|
|1-------1-------1-------------------------------6---------------|

 |               |               |               |                
|---------------------------------------------------------------||
|1---1---3---3---4---1---3---1---3---------------1-------1------||
|----------------2-------------------1---------------0----------||
|3---------------------------------------3---0---2--------------||
|------------------------------------------------3--------------||
|4-------4-------2-------2-------3-------3----------------------||

Created with TablEdit http://www.tabledit.com/

******************************************************************************
******************************************************************************

Ich ruf' zu dir, Herr Jesu Christ - BWV 639 - J S Bach (1685-1750)

Straight out of Tabledit, or almost.
Curzio Vasapollo 2003/07/24 curzio@hotmail.com

Tuning : E A D G B E    Key : Bm    Time Signature: 4/4

 |               |               |               |                
|2-------------------------------0-------------------------------|
|--------0-------3-------------------------------3-----------2---|
|------------3---------------------------0-----------------------|
|0---4---------------4---0-----------2-------4-------0---4---2---|
|2-------2-------2-------2---2---4-------1-------2-------2-------|
|----------------------------------------------------------------|

 |               |               |               |                
|--------------------0-------0---2-0-2-2-2-2--0--2---------------|
|0-----------2---3-------3---3---2---0-------3-------------------|
|--------------------3-------------------3-------3---------------|
|0-------0---4---------------------------------------4-------2---|
|2---2---0-----------------------------------------------4-------|
|----------------3-------3-------3-------3-------2-------2-------|

 |               |               |               |                
|2-----------3---5---------------3---2---------------------------|
|------------3---2-------3---2---3-----------5---3-----------3---|
|--------4-----------2---------------2---4---------------4-------|
|----4-----------4-------4-------4-------4-------4---5---4-------|
|5-------2-------------------------------------------------------|
|----------------2-------2-------2-------2-------2-------2-------|

 |               |               |               |                
|------------------------------------5-7-3-5---------------------|
|5-------7-------8---------------5-------2---7---7---------------|
|------------5---------------4-------7-------------------3-------|
|----5---4---------------5---------------------------4-------2---|
|7---------------7---7-----------4-------2-----------------------|
|0---------------0--------------------------------6-------2-------|

 |               |               |               |                
|2-------------------------------0-------------------------------|
|--------0-------3-------------------------------3-----------2---|
|------------3---------------------------0-----------------------|
|0---4---------------4---0-----------2-------4-------0---4---2---|
|2-------2-------2-------2---2---4-------1-------2-------2-------|
|----------------------------------------------------------------|

 |               |               |               |                
|--------------------0-------0---2-0-2-2-2-2--0--2---------------|
|0-----------2---3-------3---3---2---0-------3-------------------|
|--------------------3-------------------3-------3---------------|
|0-------0---4---------------------------------------4-------2---|
|2---2---0-----------------------------------------------4-------|
|----------------3-------3-------3-------3-------2-------2-------|

 |               |               |               |                
|2-----------3---5---------------3---2---------------------------|
|------------3---2-------3---2---3-----------5---3-----------3---|
|--------4-----------2---------------2---4---------------4-------|
|----4-----------4-------4-------4-------4-------4---5---4-------|
|5-------2-------------------------------------------------------|
|----------------2-------2-------2-------2-------2-------2-------|

 |               |               |               |                
|------------------------------------5-7-3-5---------------------|
|5-------7-------8---------------5-------2---7---7---------------|
|------------5---------------4-------7-----------------------4---|
|----5---4---------------5---------------------------------------|
|7---------------7---7-----------4-------2-----------7---5-------|
|0---------------0-------------------------------6---------------|

 |               |               |               |                
|5---------------7---------------5-------5-----------------------|
|------------------------------------------7-8---7-------5-------|
|----------------------------------------7-------------------6---|
|----5-------4-------4-------5-------5---------------7---5-------|
|4-------5-------5-------7-------7---------------5---------------|
|2-------2-------3-------3---------------5---------------5-------|

 |               |               |               |                
|--------0-------2---------------0-------------------------------|
|3---0---3---2---3-----------1---0---------------3---------------|
|--------------------2-----------------------0---------------2---|
|4-----------------------0-----------0-----------4---0---4-------|
|2---------------0-----------------------4-----------------------|
|--------3---------------2-------3-------------------------------|

 |               |               |               |                
|2---------------2---------------2---------------0---------------|
|2-----------2-----------0---2---4---0-------4-------2---3---2---|
|----------------------------------------2-------0---------------|
|----4---2-------1---4-------------------------------------------|
|1-------1-------2-------2-------2-------2-------2-------1-------|
|----------------------------------------------------------------|

 |               |               |               |                
|----------------------------------------------------------------|
|3---0---2---0---2---0---2---0-------------------0-------0-------|
|----------------0---------------3-------0-------------------3---|
|4-----------------------------------2-------4---0---4-----------|
|2-----------------------4---------------------------------------|
|--------3-------0---------------2-------2-------3-------3-------|

 |               |               |               |                
|----------------------------------------------------------------|
|----------------3---0---2---0---2---0---2---0---0---0---2---0---|
|----------------------------------------------------------------|
|----4---0-------2---------------2---------------4-------1-------|
|------------2-------------------0-------0-----------------------|
|3-------3-------4-------4---------------------------------------|

 |               |               |               |                
|----------------------------------------------------------------|
|----------------------------------------------------------------|
|1-----------1---2-------2---0-----------0-----------------------|
|--------3-----------4---------------2-------4---0---0---4---2---|
|----4-----------4---------------4---------------0---------------|
|1-------1-------2-------2-------0-------0-----------------------|

 |               |               |               |                
|------------------------------------------------0---------------|
|----------------3---------------3-------------------------------|
|2-----------0-----------0---------------------------------------|
|----2---------------0-------4-------0---4---2-------0---2---0---|
|4-------0-------2-------2-------2-------0-------2---------------|
|------------------------------------------------4-------4-------|

 |               |               |               |                
|0---------------2-------------------0---2---0-------------------|
|----------------------------3-------------------4-------1-------|
|--------0---------------2-------2-------------------2-----------|
|----2-------4---0---4---0-----------------------------------1---|
|4-------0-----------------------3-------3-------2-------2-------|
|----------------------------------------------------------------|

 |               |               |               |                
|3---------------2---------------0-------------------------------|
|----2-------0-----------0-----------------------3---------------|
|--------------------3-------2-------0---2---0-----------0-------|
|2-------0---------------0-------0-------------------4-------4---|
|----------------4---------------2-------4-------0-------2-------|
|0-------0-------0-----------------------------------------------|

 |               |               |               |                
|---------------------------------------------------------------||
|0---0---2---2---3---0---2---0---2---------------0-------0------||
|----------------1---------------3---0--------------------------||
|2---------------------------------------2-------1---4----------||
|--------------------------------------------4---2--------------||
|3-------3-------1-------1-------2-------2----------------------||

******************************************************************************
******************************************************************************

Добавлено: 21.05.2012
Другие материалы по этой песне:
  • Аккорды и текст

Страница создана 21.05.2012
http://primanota.ru/johann-sebastian-bach/bwv-639-ich-ruf-zu-dir-herr-jesu-christ-chords.htm
Привет, Гость.
Предлагаем пройти революционный курс по гитаре.
Подарок от PrimaNota.Ru, забирай!