PrimaNota.ru - самый крупный в мире бесплатный архив песенных текстов, аккордов, табулатур и нот


Бах Иоганн Себастьян - Bwv 582 Passacaglia And Fugue In Cm Bouncy Bit - таба

Регистрация Запомнить меня
Войти через:  Facebook Google Twitter Vk Yandex Mail.ru

Бах Иоганн Себастьян - Bwv 582 Passacaglia And Fugue In Cm Bouncy Bit - таба

Печатать
Просмотров: 208
Уроки эстрадного вокала в Санкт-Петербурге
                     From BWV 582, Passacaglia and Fugue in Cm                       
                              Johann Sebastian Bach




 
E||----4-----8----------12-10-8-13-------|----8---------------------8---8-4---|
B||--6---8-6-------------------------6---|------9---------------5-8---------6-|
G||----5-----------0-------------------0-|--------10-9------0-5---------------|
D||--6---8-6---8-6-----------------8-6---|---------------10---------------3-6-|
A||----------7-------11------------------|--8---------------------------------|
E||------------------13------------------|-------------8-12-----------4-8-----|


   
--9---6---------6---8-------------|------4-9---9-6---0-------------8-|
--------------6-------9-5-6-------|----6-----------8-----------5-8---|
------------6-----------5-----6---|--6-----------0-------5-0-5-------|
----------8-----------6-------3-6-|----------------8-----------------|
--------8-----------7-------4-----|----------------------7-----------|
----6-9-----------8---------------|----------6-9-------8-------------|



----9-6---8---4---------4---6-3---|--4---1---------1-----------------|
----------------------4---------1-|--------------1-----2-------------|
--------8-----------5-------------|------------1---------3-0-1-------|
--------5---------6-------------2-|----------3-------------------3---|
------6-------3-6-------------3---|--------3---------3-----1---3-----|
--3-6-------4-------------0-3-----|----1-4-------------4-3-------1-4-|



--------------------------------1-|--1-4-8-13-------------------8-----8-13-|
--------1---------------------1---|---------------------------8-----6------|
------1-----0-3---1---------1-----|-------------------------9--------------|
----3-----2-----2-3-------3-------|-----------10---------10-------6--------|
--3-------------3-------3---------|-------------------10-------------------|
------------0-3-----1-4-----------|--------------8-12----------------------|



----------------6---4-8-12---------|--------9-----9-13-------------------8-|
--------------6--------------------|----6-9-----8----------------------8---|
------------6-----5--------6-------|--6------------------------------9-----|
--8-------8----------------------6-|----------8--------10---------10-------|
--------8----------------------8---|---------------------------10----------|
----6-9----------------------9-----|----------------------8-12-------------|


 
------6-12-------------1-4-----3-6-|----------------1-------6---------|
----8----------------1-------1-----|--------------1-------2---1-------|
--0--------1-------1---------------|------------1-------0-----------1-|
-----------------3---------2-------|--3-------3-------------------3---|
---------------3-------------------|--------3---------1---------3-----|
-------------4---------------------|----1-4---------------------------|


   
----1-4-8-----6-12---------1-4-8-13-||
--1---------8------------1----------||
-----------------------1------------||
---------------------3--------------||
------------------------------------||
----------8--------1----------------||

Добавлено: 22.06.2012
Другие материалы по этой песне:
  • Аккорды и текст

Страница создана 22.06.2012
http://primanota.ru/johann-sebastian-bach/bwv-582-passacaglia-and-fugue-in-cm-bouncy-bit-chords.htm
Привет, Гость.
Предлагаем пройти революционный курс по гитаре.
Подарок от PrimaNota.Ru, забирай!