PrimaNota.ru - самый крупный в мире бесплатный архив песенных текстов, аккордов, табулатур и нот


Бах Иоганн Себастьян - Bwv 244 O Sacred Head Sore Wounded - таба, видео

Регистрация Запомнить меня
Войти через:  Facebook Google Twitter Vk Yandex Mail.ru

Бах Иоганн Себастьян - Bwv 244 O Sacred Head Sore Wounded - таба, видео

Печатать
Просмотров: 143
Уроки эстрадного вокала в Санкт-Петербурге
\---Song:-O-Sacred-Head,-Sore-Wounded-\
 \---Composer:-Johann-Sebastian-Bach---\
  \---Transcription-by:Christian Liang--\
  /---E-Mail:christian.liang@gmail.com--/
 /---http://www.classclef.com----------/
/---Enjoy!----------------------------/

==========================================================================
     O Sacred Head, Sore Wounded by John Sebastian Bach (1685-1750)
==========================================================================

O Haupt voll Blut and Wunden
(O Sacred Head, Sore Woundedl from the Saint Matthew Passion)

Key G
Time 4/4

[1]                                                II
E|-----------------|-0---------------|-------------2---|-3---3---2-0-2---|
B|-------------0---|-1---3---1---0---|---------0-------|-0---0---0---0---|
G|-------------0---|-0---0---0---0---|-2======-0-------|-0---0---------2-|
D|-------------0---|-----0-------0---|-----0---0-------|-------------2---|
A|-----------------|-3---2-----------|-3---------------|-------0-2-------|
E|-------------3---|---------0-2-3---|---------3---2---|-0-2-3-----------|
 | | | | | | | | | | | | | | | | | | | | | | | | | | | | | | | | | | | | |
L              3     1   4   1 2 3     1       3   1     3 1 4   4   1 3
                     3   2             2           1         2   2


[5]
E|-0===========---||-------------3---|-2-0-----0---2---|-3======-3-------|
B|-0===========--*||-------------0---|-1---3---1---1---|-1---0---0---3---|
G|-0===========---||-------------0---|-2---0---0---2---|-0-----2-0-------|
D|----------------||-----------------|-----0-----------|-----------------|
A|---------------*||-----------------|-0---2---3-2-0---|-----------------|
E|-0===========---||-------------0---|-----------------|-3======-3---3---|
 | | | | | | | | | | | | | | | | | | | | | | | | | | | | | | | | | | | | |
L                                3     3   4   1   3     4     1 4   3
                                       1   2   3   1     1       2   2
                                       2           2     3

[9]                                                II3
E|-0---------------|-------------3---|-2-3-5---3---2---|-0======-2-------|
B|-1---3---1---1---|-0==========-----|-3-------0-2-3---|-0---2---3---0---|
G|-0---4---4---2---|-1==========-2---|-2-------0---2---|---------2---0---|
D|---------------0-|-2==========-----|-0---------------|---------0---0---|
A|-3-------0-2-3---|-------------4---|-----4---2---0---|-----0-----------|
E|-----4-----------|-----------------|-----------------|-4-----------3---|
 | | | | | | | | | | | | | | | | | | | | | | | | | | | | | | | | | | | | |
L  1   2   1 2 1     1           2     1 3 4   3   1     4   2   1   3
   3   4   4   2     2           1     2   2   1 2/2             2
       3       3                 3     1           1             1

[13]
E|-----------------|-----------------|
B|-1---0-------3---|-0===========----|
G|-2---0---2-------|-0===========----|
D|-2---0---0---4---|-0===========----|
A|-0---2-3-----5---|-----------------|
E|-----------------|-3===========----|
 | | | | | | | | | | | | | | | | | | | 
L  1   2 3 2   1     3
   3           2 
   2           3



   

======
Legend
======           
= = suspend/hold Note        
II3 = Barre at fret 2. Bottom 3 strings
Добавлено: 25.05.2012
Другие материалы по этой песне:
  • Аккорды и текст

Страница создана 25.05.2012
http://primanota.ru/johann-sebastian-bach/bwv-244-o-sacred-head-sore-wounded-chords.htm
Привет, Гость.
Предлагаем пройти революционный курс по гитаре.
Подарок от PrimaNota.Ru, забирай!