PrimaNota.ru - самый крупный в мире бесплатный архив песенных текстов, аккордов, табулатур и нот


Бах Иоганн Себастьян - Bwv 119 Polonaise - таба, видео

Регистрация Запомнить меня
Войти через:  Facebook Google Twitter Vk Yandex Mail.ru

Бах Иоганн Себастьян - Bwv 119 Polonaise - таба, видео

Печатать
Просмотров: 225
\---Song:-BWV119-Polonaise------------\
 \---Composer:-Johann-Sebastian-Bach---\
  \---Transcription-by:Christian Liang--\
  /---E-Mail:christian.liang@gmail.com--/
 /---http://www.classclef.com----------/
/---Enjoy!----------------------------/


==========================================================================
               BWV 119 Polonaise by Johann Sebastian Bach
==========================================================================

Key Signature: A minor (Originally in G)
Time Signature: 3/4

[1]
E||--------------------------|---------------------------|
B||-------0-1-------3--------|--0---0-1-3=======---------|
G||*2=====-------------------|---------------------------|
D||*-------------------------|---------------------------|
A||-0-------0-------0--------|--0------------------------|
E||--------------------------|----------4---2---4---0----|
 |  | | | | | | | | | | | |  |  | | | | | | | | | | | |  | 
L   3       1       4                 1 2   1   3   
                                        3       

[3]
E|----------0---5-------5----|--------------------------||
B|--1---1-3---------3--------|--1---0-1-----------------||
G|---------------------------|----------2--------------*||
D|------------------0--------|--2-------------------2--*||
A|--0-------0----------------|--------------0---3-------||
E|---------------------------|--------------------------||
 |  | | | | | | | | | | | |  |  | | | | | | | | | | | |  | 
L   1   1 4     4   1   4       1     1 3       4   2
                                2

[5]
E||---------0-------3--------|--0------------------------|
B||-1====-3------------------|------3-1-0-1-3-0----------|
G||*-------------------------|------------------0--------|
D||*-------------------------|----------------------3----|
A||-0====-2-3-------2--------|--3------------------------|
E||--------------------------|----------3----------------|
 |  | | | | | | | | | | | |  |  | | | | | | | | | | | |  | 
L   1     4 3       4           3   4 1 3 1 4       4
          2         2

[7]                 III4.....
E|--3---0-------3---5-3------|--------------1---3-1-0----|
B|----------1-----------6-5--|--6---3---0-------------3--|
G|----------2----------------|----------0----------------|
D|--2---------------3--------|--0---------------2--------|
A|---------------------------|---------------------------|
E|---------------------------|---------------------------|
 |  | | | | | | | | | | | |  |  | | | | | | | | | | | |  | 
L   4       1   4   3   4 3     3   1       1   4 1   4
    2       3       1                           2

[9]
E|--0-----0-1---0------------|---------------------------|
B|------3-----------3---1----|--0-1-3-0-1----------------|
G|----------2----------------|--0------------------------|
D|------------------3--------|------3---2---3---2---0----|
A|--3------------------------|---------------------------|
E|---------------------------|---------------------------|
 |  | | | | | | | | | | | |  |  | | | | | | | | | | | |  | 
L   3   4   1       4   1         1 4   1   3   2
            2       3               3   2

[11]  FORTE                      FORTE
E|--0-------1----------------|---------------------------|
B|---------------------------|----------0-----------0----|
G|------------------2--------|--1---1-2---------1--------|
D|----------0----------------|--------------2---0--------|
A|--3------------------------|---------------------------|
E|------------------1--------|--0===============---------|
 |  | | | | | | | | | | | |  |  | | | | | | | | | | | |  | 
L   3       1       2           1   1 3     2   1
                    1


[13]  PAINO                      PIANO
E|--0-------1----------------|---------------------------|
B|---------------------------|----------0-----------0----|
G|------------------2--------|--1---1-2---------1--------|
D|----------0----------------|--------------2---0--------|
A|--3------------------------|---------------------------|
E|------------------1--------|--0===============---------|
 |  | | | | | | | | | | | |  |  | | | | | | | | | | | |  | 
L   3       1       2           1   1 3     2   1
                    1


[15]
E|--0---0-1-0---0-1-0---5----|--------------------------||
B|---------------------------|--1---0-1-----------------||
G|---------------------------|----------2=============-*||
D|---------------------------|--2----------------------*||
A|--3-------0-------3--------|------------------0-------||
E|---------------------------|--------------------------||
 |  | | | | | | | | | | | |  |  | | | | | | | | | | | |  | 
L   3     1       1 2   4       1     1 3
                                2

======
Legend
======
Left                       Right                   ___________
p = pull off               p = pulgar = thumb    |1.          = Ending 1
h = hammer on              i = indice = index     / 3 \       = Triplet
/ = slide                  m = medio = middle     
= = suspend/hold Note      a = anular = ring      
V3 = Barre at fret 5       
     bottom 3 strings

Добавлено: 22.02.2012
Другие материалы по этой песне:
  • Аккорды и текст

Страница создана 22.02.2012
http://primanota.ru/johann-sebastian-bach/bwv-119-polonaise-chords.htm
Привет, Гость.
Предлагаем пройти революционный курс по гитаре.
Подарок от PrimaNota.Ru, забирай!