PrimaNota.ru - самый крупный в мире бесплатный архив песенных текстов, аккордов, табулатур и нот


Бах Иоганн Себастьян - Bwv 114 Minuet In G Major - таба, видео

Регистрация Запомнить меня
Войти через:  Facebook Google Twitter Vk Yandex Mail.ru

Бах Иоганн Себастьян - Bwv 114 Minuet In G Major - таба, видео

Печатать
Просмотров: 404
Artist: Bach
Minuet in G Major from Notebook for Anna Magdalena Bach, BWV Anh. 114,
IV.
transcribed by Stany

hope you enjoy

Deticated specially to Sarah.K. of W.Falls NY(who went away to college)

                                                          
e|------------------------------|------------------------|-0-------------
B|-3-----------------0-----1----|-3----------------------|---------------
G|---------0----2---------------|------------0-----0-----|---------------
D|------------------------------|------------------------|---------------
A|-------------------0----------|-2----------------------|-3-------------
E|-3----------------------------|------------------------|---------------
          

                                                                   
e-----------0----2----|-3----------------------|--------------------------
B-1----3--------------|------------------------|-1----------3----1--------
G---------------------|------------0-----0-----|--------------------------
D---------------------|------------------------|--------------------------
A---------------------|-2----------------------|-0------------------------
E---------------------|------------------------|--------------------------
                                

                                                                   
e-----------|--------------------------------|----------------------------
B-0---------|-0----------1----0--------------|------------------0---------
G------2----|----------------------2----0----|-------0-----2--------------
D-----------|--------------------------------|-4--------------------------
A-----------|--------------------------------|-5-----2--------------------
E-----------|-3------------------------------|------------------3---------
                         

                        
e------|--------------------------------|---------------------------------
B------|--------------------------------|-3-----------------0-----1-------
G-0----|-2------------------------------|---------0----2------------------
D------|-0----------0-------------------|---------------------------------
A------|-----------------3----2----0----|-------------------0-------------
E------|--------------------------------|-3-------------------------------
                               

                                                     
e|--------------------|--0--------------------0----2----|--3-------------
B|--3-----------------|-------------1----3--------------|----------------
G|--------0-----0-----|---------------------------------|--------0-------
D|--------------------|---------------------------------|----------------
A|--------2-----------|--3------------------------------|--2-----3-------
E|--3-----------3-----|---------------------------------|----------------
           

                                                                    
e-----------------|-------------------------------|-----------------------
B-----------------|--1-------3----1----0----------|--0-------1----0-------
G------0----------|--------------------------2----|-----------------------
D-----------------|-------------------------------|-----------------------
A-2----0----------|--0----------------------------|-----------------------
E------------3----|--------------------2----------|--3--------------------
                    

                                                               
e------------|------------------------------|-------------|--7------------
B------------|--------0---------------------|-------------|---------------
G-2-----0----|--2-----------2----0----------|--0----------|--0------------
D------------|--------0----------0-----4----|-------------|---------------
A-2----------|--3---------------------------|-------------|---------------
E------------|------------------------------|--3----------|---------------
              

                                                                    
e-3----5----7----3----|--5---------------0----2---------|--3-----0--------
B---------------------|-------------3--------------3----|-----------------
G---------------------|---------------------------------|--------0--------
D---------------------|--4------------------------------|--2--------------
A---------------------|---------------------------------|-----------------
E---------------------|---------------------------------|-----------------
                               

                                                                     
e-2----3----------|-----------------------------|-------------------------
B------------3----|--2----------0----2----------|-------------0----2------
G-----------------|--2--------------------2-----|--2----------------------
D------2----------|-----------------------------|-------------------------
A-----------------|-----------------------------|--0----------------------
E-----------------|-----------------------------|-------------------------
                               

                                                                      
e------0----2----|--3-----2-----0-----|--2-----------------|--------------
B-3--------------|--------------------|--------------2-----|--3-----------
G----------------|--------------------|--------2-----------|--------------
D----------------|--------0-----------|--0-----------------|--0-----------
A----------------|--2-----------4-----|--------------0-----|--------------
E----------------|--------------------|--------2-----------|--------------
                   

                       
e-------------|-------------------------|--0----------------------|-------
B-------------|--3----------------------|-------------------------|-------
G-------------|--------0----------0-----|--------0----------0-----|-------
D-0-----------|--------0-----4----------|--------2-----4----------|-------
A-------3-----|--2----------------2-----|--3----------------3-----|-------
E-------------|-------------------------|-------------------------|-------
       

                                                                
e-------------------|-------------------------------|---------------------
B-3-----1-----0-----|-------------------------------|---------------------
G-------------------|--2-------0---------0----2-----|---------------------
D-------------------|--0------------4---------------|--0-------2----4-----
A-2-----0-----------|-------------------------------|---------------------
E-------------3-----|-------------------------------|---------------------
               

                                                                 
e-----------------|--------------------|-------------------------|--------
B------------0----|--1-----0-----------|--0-----3----------------|--------
G-0----2----------|--------0-----2-----|--0----------0-----------|--------
D------4----------|--2-----------4-----|-------------------4-----|--------
A-----------------|--------------------|-------------2-----5-----|--------
E-----------------|--------------------|-------------------------|--------
              

                      
e----------------------|
B----------------------|
G-0--------------------| (o)==#
D------------0---------|
A-2--------------------|
E-3----------------3---|
                      
~Peace out~

     
Добавлено: 01.08.2013
Другие материалы по этой песне:
  • Аккорды и текст

Страница создана 01.08.2013
http://primanota.ru/johann-sebastian-bach/bwv-114-minuet-in-g-major-chords.htm
Привет, Гость.
Предлагаем пройти революционный курс по гитаре.
Подарок от PrimaNota.Ru, забирай!