PrimaNota.ru - самый крупный в мире бесплатный архив песенных текстов, аккордов, табулатур и нот


Бах Иоганн Себастьян - Bwv 1080 - Contrapunctus Xii Canon Alla Ottava - таба, видео

Регистрация Запомнить меня
Войти через:  Facebook Google Twitter Vk Yandex Mail.ru

Бах Иоганн Себастьян - Bwv 1080 - Contrapunctus Xii Canon Alla Ottava - таба, видео

Печатать
Просмотров: 153
Composer: Johann Sebastian Bach
The Art Of The Fugue - BWV 1080 - Contrapunctus XII Canon alla Ottava




Trumpet 1



     E.  S S S S S S    S S S S S S S S S    S E  S E  S E     S Q    S E  S  
E||--5---------0---0-|--1-0-1-3-1-3-5-3-5-|--6----5----3----|--3-1----0-1--3-|
B||------3-2-3---3---|--------------------|-----------------|----------------|
G||------------------|--------------------|-----------------|----------------|
D||------------------|--------------------|-----------------|----------------|
A||------------------|--------------------|-----------------|----------------|
E||------------------|--------------------|-----------------|----------------|


  E   S  E   S  E   S     E   S E   S E  S    S S S S S S S S S  
--5--15-13---------12-|--10--------10-9----|--------------3-5-6-|
----------------------|--------------------|----------5-6-------|
------------14-12-----|------10-9--------9-|--9-7-6-7-----------|
----------------------|--------------------|--------------------|
----------------------|--------------------|--------------------|
----------------------|--------------------|--------------------|


  S S S S S S  S  S  S     S  S  S  S S  S  S S S    S S S S S S S S S  
--6-5-3-5-7-9-10-12-13-|--13-10-12-12-9-10-10-7-8-|--8-5-6-6-3-5-5---3-|
-----------------------|--------------------------|----------------6---|
-----------------------|--------------------------|--------------------|
-----------------------|--------------------------|--------------------|
-----------------------|--------------------------|--------------------|
-----------------------|--------------------------|--------------------|


  S E.  S S S S S     S E.   S  S  S  S  S  
--3-1---3-5-6-5-3-|--10-9---10-12-13-12-10-|
------------------|------------------------|
------------------|------------------------|
------------------|------------------------|
------------------|------------------------|
------------------|------------------------|


   T  T  T  T  T  T  T  T  T  T  T  T  T  T  T  T  T  T     E  E.   S  E   S  
--17-16-14-16-17-16-17-16-17-16-17-16-17-16-17-16-17-16-|--17----------------|
--------------------------------------------------------|-----------------17-|
--------------------------------------------------------|----------18-19-----|
--------------------------------------------------------|--------------------|
--------------------------------------------------------|--------------------|
--------------------------------------------------------|--------------------|


   S  S  S  S  S  S  E.     S  S  S  S  S S  E.     S S S  S  S  S  S  S  S  
-------------------------|----15-13-12-10-9-10---|--L-7-9-10-12-13-12-13-10-|
-----------15-17-18------|-----------------------|--------------------------|
-----16-18---------------|-----------------------|--------------------------|
--19----------------17---|--L--------------------|--------------------------|
-------------------------|-----------------------|--------------------------|
-------------------------|-----------------------|--------------------------|


  S  S  S  Q     S  S     S  S S  S  S  S S S S    S  S  S  S  S  S  S  S S  
--9-10-12-------------|----------------10-8-6-5-|--6-10-15----12------------|
----------10----11----|-------------10----------|----------14-------11-10-8-|
-------------------12-|--10-12-9-10-------------|----------------14---------|
----------------------|-------------------------|---------------------------|
----------------------|-------------------------|---------------------------|
----------------------|-------------------------|---------------------------|


   S S S  E   S E   S    S  S S  S S S T T T T T T    E  Q.     S  
-------------10-------|----------------------------|--------------|
-----8----------8-----|----10-8--------------------|--------------|
--10---9-10--------10-|--9------10-9-7-7-6-7-6-7-6-|--7-----------|
----------------------|----------------------------|--------------|
----------------------|----------------------------|--------------|
----------------------|----------------------------|--------------|


  H        S     E.   S S  S S S S    S S S  S S  S  S  S  S  
-------------|--10-----------7-5-7-|--8-7-9-10-9-10-12-10-12-|
-------------|-------10-9-10-------|-------------------------|
-------------|---------------------|-------------------------|
-------------|---------------------|-------------------------|
-------------|---------------------|-------------------------|
-------------|---------------------|-------------------------|


   S E   S E   S E      S Q     S E  S     S S S E   S  E   S  
--13----12----10----|--10-9-------7--9-|--10-8-7-8--17-16-----|
--------------------|----------10------|-------------------15-|
--------------------|------------------|----------------------|
--------------------|------------------|----------------------|
--------------------|------------------|----------------------|
--------------------|------------------|----------------------|


   E   S  S  S  S E   S     S  S  S  S  S  S  S  S  S  
------15-13-12-10-9--18-|--17-------------------------|
--17--------------------|-----18-------20-------18----|
------------------------|--------19-19----17-17----15-|
------------------------|-----------------------------|
------------------------|-----------------------------|
------------------------|-----------------------------|


   S  S  S  S  S  S  S  S  S     S  S  S  S  S S  S S S  
-----------------12-15-13-12-|--13-12-10-12-10-8-10-8-7-|
--------------14-------------|--------------------------|
--15-14-12-14----------------|--------------------------|
-----------------------------|--------------------------|
-----------------------------|--------------------------|
-----------------------------|--------------------------|


  S  S  S  S  S  S  S  S  S     S  S  S  S  S  S  S  S  S  
--8-10-12-10-12-13-12-13-15-|--13----17-------15-------13-|
----------------------------|-----15-------17-------15----|
----------------------------|-----------15-------14-------|
----------------------------|-----------------------------|
----------------------------|-----------------------------|
----------------------------|-----------------------------|


   S  S  S  S  S S S S S     S  S  S  T  T  T  T  T  T  T  T  T  T  T  T  
--------12---------6-5-9-|--10-12-13-------------------------------------|
-----14-------10-8-------|-----------------------------------------------|
--12-------10------------|-----------14-13----13-14-13-14-13-14-13----13-|
-------------------------|-----------------15----------------------15----|
-------------------------|-----------------------------------------------|
-------------------------|-----------------------------------------------|


   E  E.   S  E   S     E   S  S  S  S S  S S     E.   E.  E.   
--------------------|------13-13-12-10-8-10-7-|--12------------|
----------12-13-----|--15---------------------|-------10-------|
--14-------------14-|-------------------------|----------------|
--------------------|-------------------------|----------------|
--------------------|-------------------------|----------------|
--------------------|-------------------------|----------------|


   E.   S  S  S  S  S  S    S  S S S S S S S S    S E  S E  S E   
-------12-13-12-10-12-10-|--8-10-8-7-8-7-5-7-5-|--4----5----7----|
--10---------------------|---------------------|-----------------|
-------------------------|---------------------|-----------------|
-------------------------|---------------------|-----------------|
-------------------------|---------------------|-----------------|
-------------------------|---------------------|-----------------|


  S Q     S E  S    S S S S S S  E  S     E   S  E   S  E   S  
--7-8----10-8--7-|--5---5-8-5-8-12----|------13-----12-----10-|
-----------------|----5-------------9-|--10-------------------|
-----------------|--------------------|---------12-----10-----|
-----------------|--------------------|-----------------------|
-----------------|--------------------|-----------------------|
-----------------|--------------------|-----------------------|


  S S  S S S S S  S  S     S  S S S S S S S S    S S S  Q     S  S  
----7-10-8-7-5-4-10-13-|--12-10-8-7-5-4-5---7-|--8-7-5-12-------10-|
-----------------------|------------------5---|--------------12----|
--9--------------------|----------------------|--------------------|
-----------------------|----------------------|--------------------|
-----------------------|----------------------|--------------------|
-----------------------|----------------------|--------------------|


   S S  S  S  S  S  S  S  S     S  S  S  E  Q       E.   Q     S  S  
--10-8-17-------15-------13-|--------------------|------------------|
----------------------------|--------12----------|------15----13-15-|
----------17-16----16-14----|--14-13-------------|------------------|
----------------------------|-----------14-------|------------------|
----------------------------|--------------------|------------------|
----------------------------|--------------------|------------------|


   S  S S S S  S  S  S  S     S  S  S  S  S  S  S  S  S  
--12-10-8-7-8-10-12-14-16-|--17----------15-------------|
--------------------------|-----17----15----------18----|
--------------------------|--------17-------16-17-------|
--------------------------|--------------------------19-|
--------------------------|-----------------------------|
--------------------------|-----------------------------|


   S  S  S  S  S  S  S  S  S     S  S  S  S  S  S  S  S  S    S S S  Q    S S  
-----------------------------|-----------------------12-10-|--8-7-5-10----8-7-|
-----17-15-------------------|--------------------12-------|------------------|
--16-------17-16-14-16-14-13-|--14-13-11-13----13----------|------------------|
-----------------------------|--------------14-------------|------------------|
-----------------------------|-----------------------------|------------------|
-----------------------------|-----------------------------|------------------|


  S E   S E   S E      E  S  E  S T  T T  T T  T    E  Q.     S  
--8----13----12----|--10--------8----------------|--------------|
-------------------|------9-10----9----9---------|--------------|
-------------------|----------------10---10-9-10-|--9-----------|
-------------------|-----------------------------|--------------|
-------------------|-----------------------------|--------------|
-------------------|-----------------------------|--------------|


  S S S S S S E.     S S S S S S S S S    S S S S S S S S S    S E  S E  S E   
------------------|------3-5-6-5-3-5-3-|--1-3-1-0-1-0---0---|------------0----|
--------6-8-6-5---|--L-6---------------|--------------3---3-|--2----3---------|
----7-9-----------|--------------------|--------------------|-----------------|
------------------|--------------------|--------------------|-----------------|
------------------|--------------------|--------------------|-----------------|
------------------|--------------------|--------------------|-----------------|


  Q    S S T T T T S    S S S  T T  T T  T T  T T  T T  T T  
--1----L-5-5-3-5-3-1-|--3-1-0-10-9----9-10-9-10-9-10-9----9-|
---------------------|-------------11------------------11---|
---------------------|--------------------------------------|
---------------------|--------------------------------------|
---------------------|--------------------------------------|
---------------------|--------------------------------------|


   S  S  S  S  S  S  S  S  S     S  S  S  S  S  S S S S  
--10----15-------13-------12-|--------12-------10-----9-|
-----11----13-------11-------|--10-------10-------8-----|
--------------14-------12----|-----12-------10------9---|
-----------------------------|--------------------------|
-----------------------------|--------------------------|
-----------------------------|--------------------------|


   S  S  S S S S S S S    Q    S S S S S    S E  S E  S E     S E  S E  S E   
--10-------------------|--0------3-1-3-0-|--1----0---------|------------0----|
-----10--------6-5-6---|-------6---------|------------3----|--2----3---------|
--------10-7-9-------7-|-----------------|-----------------|-----------------|
-----------------------|-----------------|-----------------|-----------------|
-----------------------|-----------------|-----------------|-----------------|
-----------------------|-----------------|-----------------|-----------------|


  S S S S S S E  S    S S S S S S S S S    S S S S S S S S S  
--1-0---6-5-3-9----|--------------------|--------------------|
------3------------|----8-------5---0---|--------1-----------|
-------------------|------7-6-7-------6-|--7-0-3-----2-3---0-|
-------------------|--------------7-----|----------3-----2---|
-------------------|--------------------|--------------------|
-------------------|--------------------|--------------------|


  S S S S  S S S S S    E.  S S S S S S    S S S S S S S S S    S E  S E  S E   
----5-3-1-10-8-6-5-6-|--5---------0---0-|--1-0-1-3-1-3-5-3-5-|--6----5----3----|
---------------------|------3-2-3---3---|--------------------|-----------------|
--2------------------|------------------|--------------------|-----------------|
---------------------|------------------|--------------------|-----------------|
---------------------|------------------|--------------------|-----------------|
---------------------|------------------|--------------------|-----------------|


  S Q    S E  S    E   S  E   S  E   S     E   S E   S E  S  
--3-1----0-1--3-|--5--15-13---------12-|--10--------10-9----|
----------------|----------------------|--------------------|
----------------|------------14-12-----|------10-9--------9-|
----------------|----------------------|--------------------|
----------------|----------------------|--------------------|
----------------|----------------------|--------------------|


  S S S S S S S S S    S S S S S S  S  S  S     S  S  S  S S  S  S S S  
--------------3-5-6-|--6-5-3-5-7-9-10-12-13-|--13-10-12-12-9-10-10-7-8-|
----------5-6-------|-----------------------|--------------------------|
--9-7-6-7-----------|-----------------------|--------------------------|
--------------------|-----------------------|--------------------------|
--------------------|-----------------------|--------------------------|
--------------------|-----------------------|--------------------------|


  S S S S S S S S S    S E.  S S S S S     S E.   S  S  S  S  S  
--8-5-6-6-3-5-5---3-|--3-1---3-5-6-5-3-|--10-9---10-12-13-12-10-|
----------------6---|------------------|------------------------|
--------------------|------------------|------------------------|
--------------------|------------------|------------------------|
--------------------|------------------|------------------------|
--------------------|------------------|------------------------|


   T  T  T  T  T  T  T  T  T  T  T  T  T  T  T  T  T  T     E  E.   S  E   S  
--17-16-14-16-17-16-17-16-17-16-17-16-17-16-17-16-17-16-|--17----------------|
--------------------------------------------------------|-----------------17-|
--------------------------------------------------------|----------18-19-----|
--------------------------------------------------------|--------------------|
--------------------------------------------------------|--------------------|
--------------------------------------------------------|--------------------|


   S  S  S  S  S  S  E.     S  S  S  S  S S  E.     S S S  S  S  S  S  S  S  
-------------------------|----15-13-12-10-9-10---|--L-7-9-10-12-13-12-13-10-|
-----------15-17-18------|-----------------------|--------------------------|
-----16-18---------------|-----------------------|--------------------------|
--19----------------17---|--L--------------------|--------------------------|
-------------------------|-----------------------|--------------------------|
-------------------------|-----------------------|--------------------------|


  S  S  S  Q     S  S     S  S S  S  S  S S S S    S  S  S  S  S  S  S  S S  
--9-10-12-------------|----------------10-8-6-5-|--6-10-15----12------------|
----------10----11----|-------------10----------|----------14-------11-10-8-|
-------------------12-|--10-12-9-10-------------|----------------14---------|
----------------------|-------------------------|---------------------------|
----------------------|-------------------------|---------------------------|
----------------------|-------------------------|---------------------------|


   S S S  E   S E   S    S  S S  S S S T T T T T T    E  Q.     S  
-------------10-------|----------------------------|--------------|
-----8----------8-----|----10-8--------------------|--------------|
--10---9-10--------10-|--9------10-9-7-7-6-7-6-7-6-|--7-----------|
----------------------|----------------------------|--------------|
----------------------|----------------------------|--------------|
----------------------|----------------------------|--------------|


  H        S     E.   S S  S S S S    S S S  S S  S  S  S  S  
-------------|--10-----------7-5-7-|--8-7-9-10-9-10-12-10-12-|
-------------|-------10-9-10-------|-------------------------|
-------------|---------------------|-------------------------|
-------------|---------------------|-------------------------|
-------------|---------------------|-------------------------|
-------------|---------------------|-------------------------|


   S E   S E   S E      S Q     S E  S     S S S E   S  E   S  
--13----12----10----|--10-9-------7--9-|--10-8-7-8--17-16-----|
--------------------|----------10------|-------------------15-|
--------------------|------------------|----------------------|
--------------------|------------------|----------------------|
--------------------|------------------|----------------------|
--------------------|------------------|----------------------|


   E   S  S  S  S E   S     S  S  S  S  S  S  S  S  S  
------15-13-12-10-9--18-|--17-------------------------|
--17--------------------|-----18-------20-------18----|
------------------------|--------19-19----17-17----15-|
------------------------|-----------------------------|
------------------------|-----------------------------|
------------------------|-----------------------------|


   S  S  S  S  S  S  S  S  S     S  S  S  S  S S  S S S  
-----------------12-15-13-12-|--13-12-10-12-10-8-10-8-7-|
--------------14-------------|--------------------------|
--15-14-12-14----------------|--------------------------|
-----------------------------|--------------------------|
-----------------------------|--------------------------|
-----------------------------|--------------------------|


  S  S  S  S  S  S  S  S  S     S  S  S  S  S  S  S  S  S  
--8-10-12-10-12-13-12-13-15-|--13----17-------15-------13-|
----------------------------|-----15-------17-------15----|
----------------------------|-----------15-------14-------|
----------------------------|-----------------------------|
----------------------------|-----------------------------|
----------------------------|-----------------------------|


   S  S  S  S  S S S S S     S  S  S  T  T  T  T  T  T  T  T  T  T  T  T  
--------12---------6-5-9-|--10-12-13-------------------------------------|
-----14-------10-8-------|-----------------------------------------------|
--12-------10------------|-----------14-13----13-14-13-14-13-14-13----13-|
-------------------------|-----------------15----------------------15----|
-------------------------|-----------------------------------------------|
-------------------------|-----------------------------------------------|


   E  E.   S  E   S     E   S  S  S  S S  S S     E.   E.  E.   
--------------------|------13-13-12-10-8-10-7-|--12------------|
----------12-13-----|--15---------------------|-------10-------|
--14-------------14-|-------------------------|----------------|
--------------------|-------------------------|----------------|
--------------------|-------------------------|----------------|
--------------------|-------------------------|----------------|


   E.   S  S  S  S  S  S    S  S S S S S S S S    S E  S E  S E   
-------12-13-12-10-12-10-|--8-10-8-7-8-7-5-7-5-|--4----5----7----|
--10---------------------|---------------------|-----------------|
-------------------------|---------------------|-----------------|
-------------------------|---------------------|-----------------|
-------------------------|---------------------|-----------------|
-------------------------|---------------------|-----------------|


  S Q     S E  S    S S S S S S  E  S     E   S  E   S  E   S  
--7-8----10-8--7-|--5---5-8-5-8-12----|------13-----12-----10-|
-----------------|----5-------------9-|--10-------------------|
-----------------|--------------------|---------12-----10-----|
-----------------|--------------------|-----------------------|
-----------------|--------------------|-----------------------|
-----------------|--------------------|-----------------------|


  S S  S S S S S  S  S     S  S S S S S S S S    S S S  Q     S  S  
----7-10-8-7-5-4-10-13-|--12-10-8-7-5-4-5---7-|--8-7-5-12-------10-|
-----------------------|------------------5---|--------------12----|
--9--------------------|----------------------|--------------------|
-----------------------|----------------------|--------------------|
-----------------------|----------------------|--------------------|
-----------------------|----------------------|--------------------|


   S S  S  S  S  S  S  S  S     S  S  S  E  Q       E.   Q     S  S  
--10-8-17-------15-------13-|--------------------|------------------|
----------------------------|--------12----------|------15----13-15-|
----------17-16----16-14----|--14-13-------------|------------------|
----------------------------|-----------14-------|------------------|
----------------------------|--------------------|------------------|
----------------------------|--------------------|------------------|


   S  S S S S  S  S  S  S     S  S  S  S  S  S  S  S  S  
--12-10-8-7-8-10-12-14-16-|--17----------15-------------|
--------------------------|-----17----15----------18----|
--------------------------|--------17-------16-17-------|
--------------------------|--------------------------19-|
--------------------------|-----------------------------|
--------------------------|-----------------------------|


   S  S  S  S  S  S  S  S  S     S  S  S  S  S  S  S  S  S    S S S  Q    S S  
-----------------------------|-----------------------12-10-|--8-7-5-10----8-7-|
-----17-15-------------------|--------------------12-------|------------------|
--16-------17-16-14-16-14-13-|--14-13-11-13----13----------|------------------|
-----------------------------|--------------14-------------|------------------|
-----------------------------|-----------------------------|------------------|
-----------------------------|-----------------------------|------------------|


  S E   S E   S E      E  S  E  S T  T T  T T  T    E  Q.     S  
--8----13----12----|--10--------8----------------|--------------|
-------------------|------9-10----9----9---------|--------------|
-------------------|----------------10---10-9-10-|--9-----------|
-------------------|-----------------------------|--------------|
-------------------|-----------------------------|--------------|
-------------------|-----------------------------|--------------|


  S S S S S S E.     S S S S S S S S S    S S S S S S S S S    S E  S E  S E   
------------------|------3-5-6-5-3-5-3-|--1-3-1-0-1-0---0---|------------0----|
--------6-8-6-5---|--L-6---------------|--------------3---3-|--2----3---------|
----7-9-----------|--------------------|--------------------|-----------------|
------------------|--------------------|--------------------|-----------------|
------------------|--------------------|--------------------|-----------------|
------------------|--------------------|--------------------|-----------------|


  Q    S S T T T T S    S S S  T T  T T  T T  T T  T T  T T  
--1----L-5-5-3-5-3-1-|--3-1-0-10-9----9-10-9-10-9-10-9----9-|
---------------------|-------------11------------------11---|
---------------------|--------------------------------------|
---------------------|--------------------------------------|
---------------------|--------------------------------------|
---------------------|--------------------------------------|


   S  S  S  S  S  S  S  S  S     S  S  S  S  S  S S S S  
--10----15-------13-------12-|--------12-------10-----9-|
-----11----13-------11-------|--10-------10-------8-----|
--------------14-------12----|-----12-------10------9---|
-----------------------------|--------------------------|
-----------------------------|--------------------------|
-----------------------------|--------------------------|


   S  S  S S S S S S S    Q    S S S S S    S E  S E  S E     S E  S E  S E   
--10-------------------|--0------3-1-3-0-|--1----0---------|------------0----|
-----10--------6-5-6---|-------6---------|------------3----|--2----3---------|
--------10-7-9-------7-|-----------------|-----------------|-----------------|
-----------------------|-----------------|-----------------|-----------------|
-----------------------|-----------------|-----------------|-----------------|
-----------------------|-----------------|-----------------|-----------------|


  S S S S S S E  S    S S S S S S S S S    S S S S S S S S S  
--1-0---6-5-3-9----|--------------------|--------------------|
------3------------|----8-------5---0---|--------1-----------|
-------------------|------7-6-7-------6-|--7-0-3-----2-3---0-|
-------------------|--------------7-----|----------3-----2---|
-------------------|--------------------|--------------------|
-------------------|--------------------|--------------------|


  S S S S  S S S S S    E.  S S S S S S    S S S S S S S S S    S E  S E  S E   
----5-3-1-10-8-6-5-6-|--5---------0---0-|--1-0-1-3-1-3-5-3-5-|--6----5----3----|
---------------------|------3-2-3---3---|--------------------|-----------------|
--2------------------|------------------|--------------------|-----------------|
---------------------|------------------|--------------------|-----------------|
---------------------|------------------|--------------------|-----------------|
---------------------|------------------|--------------------|-----------------|


  S Q    S E  S    E   S  E   S  E   S     E   S E   S E  S  
--3-1----0-1--3-|--5--15-13---------12-|--10--------10-9----|
----------------|----------------------|--------------------|
----------------|------------14-12-----|------10-9--------9-|
----------------|----------------------|--------------------|
----------------|----------------------|--------------------|
----------------|----------------------|--------------------|


  S S S S S S S S S    S S S S S S  S  S  S     S  S  S  S S  S  S S S  
--------------3-5-6-|--6-5-3-5-7-9-10-12-13-|--13-10-12-12-9-10-10-7-8-|
----------5-6-------|-----------------------|--------------------------|
--9-7-6-7-----------|-----------------------|--------------------------|
--------------------|-----------------------|--------------------------|
--------------------|-----------------------|--------------------------|
--------------------|-----------------------|--------------------------|


  S S S S S S S S S    S E.  S S S S S     S E.   S  S  S  S  S  
--8-5-6-6-3-5-5---3-|--3-1---3-5-6-5-3-|--10-9---10-12-13-12-10-|
----------------6---|------------------|------------------------|
--------------------|------------------|------------------------|
--------------------|------------------|------------------------|
--------------------|------------------|------------------------|
--------------------|------------------|------------------------|


   T  T  T  T  T  T  T  T  T  T  T  T  T  T  T  T  T  T     E  E.   S  E   S  
--17-16-14-16-17-16-17-16-17-16-17-16-17-16-17-16-17-16-|--17----------------|
--------------------------------------------------------|-----------------17-|
--------------------------------------------------------|----------18-19-----|
--------------------------------------------------------|--------------------|
--------------------------------------------------------|--------------------|
--------------------------------------------------------|--------------------|


   S  S  S  S  S  S  E.     S  S  S  S  S S  E.     S S S  S  S  S  S  S  S  
-------------------------|----15-13-12-10-9-10---|--L-7-9-10-12-13-12-13-10-|
-----------15-17-18------|-----------------------|--------------------------|
-----16-18---------------|-----------------------|--------------------------|
--19----------------17---|--L--------------------|--------------------------|
-------------------------|-----------------------|--------------------------|
-------------------------|-----------------------|--------------------------|


  S  S  S  Q     S  S     S  S S  S  S  S S S S    S  S  S  S  S  S  S  S S  
--9-10-12-------------|----------------10-8-6-5-|--6-10-15----12------------|
----------10----11----|-------------10----------|----------14-------11-10-8-|
-------------------12-|--10-12-9-10-------------|----------------14---------|
----------------------|-------------------------|---------------------------|
----------------------|-------------------------|---------------------------|
----------------------|-------------------------|---------------------------|


   S S S  E   S E   S    S  S S  S S S T T T T T T    E  E.  S E   S  
-------------10-------|----------------------------|---------6-5--13-|
-----8----------8-----|----10-8--------------------|-----------------|
--10---9-10--------10-|--9------10-9-7-7-6-7-6-7-6-|--7--------------|
----------------------|----------------------------|-----------------|
----------------------|----------------------------|-----------------|
----------------------|----------------------------|-----------------|


   S  S  S  S S  S  S  S  S     E   S  S  S  S  S  S  S    S  S  S  E  S E  S  
--------------9-12-15-13-12-|--17--------12-13----11-10-|--9-10-12------------|
-----10-11-10---------------|------14-15-------11-------|----------10---------|
--12------------------------|---------------------------|---------------------|
----------------------------|---------------------------|---------------------|
----------------------------|---------------------------|----------------0----|
----------------------------|---------------------------|---------------------|


  H        S   
-------------||
-------------||
-------------||
-------------||
-------------||
-------------||












Trumpet 2



     H        S    H        S    H        S    H        S    E.  S S S S S S  
E||-------------|-------------|-------------|-------------|------------------|
B||-------------|-------------|-------------|-------------|------------------|
G||-------------|-------------|-------------|-------------|--2---------------|
D||-------------|-------------|-------------|-------------|------0---0-2-0-2-|
A||-------------|-------------|-------------|-------------|--------4---------|
E||-------------|-------------|-------------|-------------|------------------|


  S S S S S S S S S    S E  S E  S E     S Q    S E  S    E  S E  S E  S  
--------------------|-----------------|----------------|-----3-1-------0-|
--------------------|-----------------|----------------|-----------------|
--------0---0-2-0-2-|--3----2----0----|--0-----------0-|--2-------2-0----|
--3-2-3---3---------|-----------------|----3----2-3----|-----------------|
--------------------|-----------------|----------------|-----------------|
--------------------|-----------------|----------------|-----------------|


  E  S E  S E  S    S S S S S S S S S    S S S S S S S S S  
-----------------|--------------------|----------------0-1-|
--3-------3-2----|--------------------|----------0-2-3-----|
-----------------|--------------0-2-3-|--3-2-0-2-----------|
-----3-2-------2-|--2-0---0-2-3-------|--------------------|
-----------------|------4-------------|--------------------|
-----------------|--------------------|--------------------|


  S S S S S S S S S    S S S S S S S S S    S E.  S S S S S    S E.  S S S S S  
--1---0-0-----------|--------------------|------------------|----------0-1-0---|
----3-----2-3-3-0-1-|--1-----------------|------------------|--3-2---3-------3-|
--------------------|----2-3-3-0-2-2---0-|--0-----0-2-3-2-0-|------------------|
--------------------|----------------3---|----3-------------|------------------|
--------------------|--------------------|------------------|------------------|
--------------------|--------------------|------------------|------------------|


  T T T T T T T T T T T T T T T T T T    E  E.  S E  S    S S S S S S E.   
--5-4-2-4-5-4-5-4-5-4-5-4-5-4-5-4-5-4-|--5-----------0-|----------0-------|
--------------------------------------|----------------|----0-------6-----|
--------------------------------------|---------6-7----|------6-7-----0---|
--------------------------------------|----------------|--7---------------|
--------------------------------------|----------------|------------------|
--------------------------------------|----------------|------------------|


  S S S S S S E.     S S S S S S S S S    S S S Q    S S    S S S S S S S S S  
----3-1-0---------|----------0-1-0-1---|------0----------|--------------------|
----------3-2-3---|--L-0-2-3---------3-|--2-3------------|------------3-1-----|
--L---------------|--------------------|--------2----3-0-|----0-----2-----3-2-|
------------------|--------------------|-----------------|--3---2-3-----------|
------------------|--------------------|-----------------|--------------------|
------------------|--------------------|-----------------|--------------------|


  S S S S S S S S S    S S S E  S E  S    S S S S S S T T T T T T  
------3---0---------|------------------|--------------------------|
----3---2-----------|-----------3------|--------------------------|
--3---------2-3-2-0-|----0--------0----|----2-0-------------------|
--------------------|--3---2-3-------3-|--2-----3-2-0-0---0---0---|
--------------------|------------------|----------------4---4---4-|
--------------------|------------------|--------------------------|


  E  Q.     S    H        S    E.  S S S S S S    S S S S S S S S S  
--------------|-------------|------------------|--------------0---0-|
--------------|-------------|--3---------0---0-|--1-0-2-3-2-3---3---|
--------------|-------------|------2-1-2---2---|--------------------|
--0-----------|-------------|------------------|--------------------|
--------------|-------------|------------------|--------------------|
--------------|-------------|------------------|--------------------|


  S E  S E  S E     S Q    S E  S    S S S E  S E  S    E  S S S S E  S  
--1----0---------|----------------|-----------5-4----|--0--3-1-0------6-|
------------3----|--3-2------0--2-|--3-1-0-1-------3-|-----------3-2----|
-----------------|---------2------|------------------|------------------|
-----------------|----------------|------------------|------------------|
-----------------|----------------|------------------|------------------|
-----------------|----------------|------------------|------------------|


  S S S S S S S S S    S S S S S S S S S    S S S S S S S S S  
--5-----------------|------------0-3-1-0-|--1-0---0-----------|
----6-----8-----6---|----------2---------|------3---3-1-3-1-0-|
------7-7---5-5---3-|--3-2-0-2-----------|--------------------|
--------------------|--------------------|--------------------|
--------------------|--------------------|--------------------|
--------------------|--------------------|--------------------|


  S S S S S S S S S    S S S S S S S S S    S S S S S S S S S  
------0---0-1-0-1-3-|--1---5---0-3-----1-|------0-------------|
--1-3---3-----------|----3-----------3---|----2-------------2-|
--------------------|--------3-----2-----|--0-------2-0-3-2---|
--------------------|--------------------|--------3-----------|
--------------------|--------------------|--------------------|
--------------------|--------------------|--------------------|


  S S S T T T T T T T T T T T T    E  E.  S E  S    E  S S S S S S S  
----0-1-------------------------|----------------|-----1-1-0---------|
--3-----------------------------|---------0-1----|--3--------3-1-3-0-|
--------2-1---1-2-1-2-1-2-1---1-|--2-----------2-|-------------------|
------------3---------------3---|----------------|-------------------|
--------------------------------|----------------|-------------------|
--------------------------------|----------------|-------------------|


  E.  E.  E.     E.  S S S S S S    S S S S S S S S S    S E  S E  S E   
--0-----------|------0-1-0---0---|--------------------|-----------------|
--------------|------------3---3-|--1-3-1-0-1-0---0---|------------0----|
------2-------|--2---------------|--------------2---2-|--1----2---------|
--------------|------------------|--------------------|-----------------|
--------------|------------------|--------------------|-----------------|
--------------|------------------|--------------------|-----------------|


  S Q    S E  S    S S S S S S E  S    E  S E  S E  S    S S S S S S S S S  
----------------|--------------0----|-----1----0------|------------------1-|
--0-1----3-1--0-|--------1---1------|---------------3-|----0-3-1-0-----3---|
----------------|--2---2---2------1-|--2----0---------|------------2-1-----|
----------------|----2--------------|------------3----|--2-----------------|
----------------|-------------------|-----------------|--------------------|
----------------|-------------------|-----------------|--------------------|


  S S S S S S S S S    S S S Q    S S    S S S S S S S S S    S S S E  Q     
--0-----------------|--------0--------|------5-----3-----1-|----------------|
----3-1-0---------0-|--1-0--------0-3-|--3-1-----0---0-----|------0---------|
----------2-1-2-----|------2----------|--------5-------2---|--2-1-----------|
----------------2---|-----------------|--------------------|--------2-------|
--------------------|-----------------|--------------------|----------------|
--------------------|-----------------|--------------------|----------------|


  E.  Q    S S    S S S S S S S S S    S S S S S S S S S    S S S S S S S S S  
---------------|--0-----------0-2-4-|--5-------3-----1---|----0---------------|
------3----1-3-|----3-1-0-1-3-------|----5---3---0-1-----|--0---3-1-0---0-----|
---------------|--------------------|------5-----------2-|------------2---2-1-|
---------------|--------------------|--------------------|--------------------|
---------------|--------------------|--------------------|--------------------|
---------------|--------------------|--------------------|--------------------|


  S S S S S S S S S    S S S Q    S S    S E  S E  S E   
----------------0---|-----------------|-------1----0----|
--------------0---3-|--1-0---3----1-0-|--1--------------|
--2-1---1---1-------|------2----------|-----------------|
------4---2---------|-----------------|-----------------|
--------------------|-----------------|-----------------|
--------------------|-----------------|-----------------|


  E  S E  S T T T T T T    E  Q.     S    S S S S S S E.     S S S S S S S S S  
------------------------|--------------|------------------|--------------------|
--3-------1-------------|--------------|------------------|--------------------|
-----1-2----1---1-------|--------------|----------0-------|------0-2-3-2-0-2-0-|
--------------3---3-2-3-|--2-----------|----0-2-3---3-2---|--L-3---------------|
------------------------|--------------|------------------|--------------------|
------------------------|--------------|------------------|--------------------|


  S S S S S S S S S    S E  S E  S E     Q    S S T T T T S  
--------------------|-----------------|---------------------|
--------------------|-----------------|---------------------|
----0---------------|-----------------|---------2-2-0-2-0---|
--3---3-2-3-2-0-2-0-|-------0----2----|--3----L-----------3-|
--------------------|--4--------------|---------------------|
--------------------|-----------------|---------------------|


  S S S T T T T T T T T T T T T    S S S S S S S S S    S S S S S S S S S  
--------------------------------|------3-----1-----0-|------0-------------|
--------3-2---2-3-2-3-2-3-2---2-|--3-----1-----------|------------3-----2-|
--0---------3---------------3---|----3-----2---3-0---|--2-0---2-----0-----|
----3-2-------------------------|--------------------|----------3-----2---|
--------------------------------|--------------------|--------------------|
--------------------------------|--------------------|--------------------|


  S S S S S S S S S    Q    S S S S S    S E  S E  S E     S E  S E  S E   
--------------------|-----------------|-----------------|-----------------|
--3-----------------|-----------------|-----------------|-----------------|
----2---------------|---------0---0---|-----------------|-----------------|
------3-0-2-3-2-3-0-|--2----3---3---2-|--3----2----0----|-------0----2----|
--------------------|-----------------|-----------------|--4--------------|
--------------------|-----------------|-----------------|-----------------|


  S S S S S S E  S    S S S S S S S S S    S S S S S S S S S  
-------------------|--------------------|--------------------|
--------------2----|--------------------|--------------------|
--------3-2-0------|----0---------------|--------------------|
--3-2-0------------|------0---0-2-------|--0-----------------|
-------------------|--------4-----0-2-4-|------1-3---0-1-----|
-------------------|--------------------|----3-----1-----0-3-|


  S S S S S S S S S    E.  S S S S S S    S S S S S S S S S    S E  S E  S E   
--------------------|------------------|--------------------|-----------------|
----------3-1-------|------------------|--------------------|-----------------|
----2-0-------3-2-3-|--2---------------|--------0---0-2-0-2-|--3----2----0----|
--------3-----------|------0---0-2-0-2-|--3-2-3---3---------|-----------------|
--0-----------------|--------4---------|--------------------|-----------------|
--------------------|------------------|--------------------|-----------------|


  S Q    S E  S    E  S E  S E  S    E  S E  S E  S    S S S S S S S S S  
----------------|-----3-1-------0-|-----------------|--------------------|
----------------|-----------------|--3-------3-2----|--------------------|
--0-----------0-|--2-------2-0----|-----------------|--------------0-2-3-|
----3----2-3----|-----------------|-----3-2-------2-|--2-0---0-2-3-------|
----------------|-----------------|-----------------|------4-------------|
----------------|-----------------|-----------------|--------------------|


  S S S S S S S S S    S S S S S S S S S    S S S S S S S S S  
----------------0-1-|--1---0-0-----------|--------------------|
----------0-2-3-----|----3-----2-3-3-0-1-|--1-----------------|
--3-2-0-2-----------|--------------------|----2-3-3-0-2-2---0-|
--------------------|--------------------|----------------3---|
--------------------|--------------------|--------------------|
--------------------|--------------------|--------------------|


  S E.  S S S S S    S E.  S S S S S    T T T T T T T T T T T T T T T T T T  
------------------|----------0-1-0---|--5-4-2-4-5-4-5-4-5-4-5-4-5-4-5-4-5-4-|
------------------|--3-2---3-------3-|--------------------------------------|
--0-----0-2-3-2-0-|------------------|--------------------------------------|
----3-------------|------------------|--------------------------------------|
------------------|------------------|--------------------------------------|
------------------|------------------|--------------------------------------|


  E  E.  S E  S    S S S S S S E.     S S S S S S E.     S S S S S S S S S  
--5-----------0-|----------0-------|----3-1-0---------|----------0-1-0-1---|
----------------|----0-------6-----|----------3-2-3---|--L-0-2-3---------3-|
---------6-7----|------6-7-----0---|--L---------------|--------------------|
----------------|--7---------------|------------------|--------------------|
----------------|------------------|------------------|--------------------|
----------------|------------------|------------------|--------------------|


  S S S Q    S S    S S S S S S S S S    S S S S S S S S S    S S S E  S E  S  
------0----------|--------------------|------3---0---------|------------------|
--2-3------------|------------3-1-----|----3---2-----------|-----------3------|
--------2----3-0-|----0-----2-----3-2-|--3---------2-3-2-0-|----0--------0----|
-----------------|--3---2-3-----------|--------------------|--3---2-3-------3-|
-----------------|--------------------|--------------------|------------------|
-----------------|--------------------|--------------------|------------------|


  S S S S S S T T T T T T    E  Q.     S    H        S    E.  S S S S S S  
--------------------------|--------------|-------------|------------------|
--------------------------|--------------|-------------|--3---------0---0-|
----2-0-------------------|--------------|-------------|------2-1-2---2---|
--2-----3-2-0-0---0---0---|--0-----------|-------------|------------------|
----------------4---4---4-|--------------|-------------|------------------|
--------------------------|--------------|-------------|------------------|


  S S S S S S S S S    S E  S E  S E     S Q    S E  S    S S S E  S E  S  
--------------0---0-|--1----0---------|----------------|-----------5-4----|
--1-0-2-3-2-3---3---|------------3----|--3-2------0--2-|--3-1-0-1-------3-|
--------------------|-----------------|---------2------|------------------|
--------------------|-----------------|----------------|------------------|
--------------------|-----------------|----------------|------------------|
--------------------|-----------------|----------------|------------------|


  E  S S S S E  S    S S S S S S S S S    S S S S S S S S S  
--0--3-1-0------6-|--5-----------------|------------0-3-1-0-|
-----------3-2----|----6-----8-----6---|----------2---------|
------------------|------7-7---5-5---3-|--3-2-0-2-----------|
------------------|--------------------|--------------------|
------------------|--------------------|--------------------|
------------------|--------------------|--------------------|


  S S S S S S S S S    S S S S S S S S S    S S S S S S S S S  
--1-0---0-----------|------0---0-1-0-1-3-|--1---5---0-3-----1-|
------3---3-1-3-1-0-|--1-3---3-----------|----3-----------3---|
--------------------|--------------------|--------3-----2-----|
--------------------|--------------------|--------------------|
--------------------|--------------------|--------------------|
--------------------|--------------------|--------------------|


  S S S S S S S S S    S S S T T T T T T T T T T T T    E  E.  S E  S  
------0-------------|----0-1-------------------------|----------------|
----2-------------2-|--3-----------------------------|---------0-1----|
--0-------2-0-3-2---|--------2-1---1-2-1-2-1-2-1---1-|--2-----------2-|
--------3-----------|------------3---------------3---|----------------|
--------------------|--------------------------------|----------------|
--------------------|--------------------------------|----------------|


  E  S S S S S S S    E.  E.  E.     E.  S S S S S S    S S S S S S S S S  
-----1-1-0---------|--0-----------|------0-1-0---0---|--------------------|
--3--------3-1-3-0-|--------------|------------3---3-|--1-3-1-0-1-0---0---|
-------------------|------2-------|--2---------------|--------------2---2-|
-------------------|--------------|------------------|--------------------|
-------------------|--------------|------------------|--------------------|
-------------------|--------------|------------------|--------------------|


  S E  S E  S E     S Q    S E  S    S S S S S S E  S    E  S E  S E  S  
-----------------|----------------|--------------0----|-----1----0------|
------------0----|--0-1----3-1--0-|--------1---1------|---------------3-|
--1----2---------|----------------|--2---2---2------1-|--2----0---------|
-----------------|----------------|----2--------------|------------3----|
-----------------|----------------|-------------------|-----------------|
-----------------|----------------|-------------------|-----------------|


  S S S S S S S S S    S S S S S S S S S    S S S Q    S S  
------------------1-|--0-----------------|--------0--------|
----0-3-1-0-----3---|----3-1-0---------0-|--1-0--------0-3-|
------------2-1-----|----------2-1-2-----|------2----------|
--2-----------------|----------------2---|-----------------|
--------------------|--------------------|-----------------|
--------------------|--------------------|-----------------|


  S S S S S S S S S    S S S E  Q       E.  Q    S S    S S S S S S S S S  
------5-----3-----1-|----------------|---------------|--0-----------0-2-4-|
--3-1-----0---0-----|------0---------|------3----1-3-|----3-1-0-1-3-------|
--------5-------2---|--2-1-----------|---------------|--------------------|
--------------------|--------2-------|---------------|--------------------|
--------------------|----------------|---------------|--------------------|
--------------------|----------------|---------------|--------------------|


  S S S S S S S S S    S S S S S S S S S    S S S S S S S S S  
--5-------3-----1---|----0---------------|----------------0---|
----5---3---0-1-----|--0---3-1-0---0-----|--------------0---3-|
------5-----------2-|------------2---2-1-|--2-1---1---1-------|
--------------------|--------------------|------4---2---------|
--------------------|--------------------|--------------------|
--------------------|--------------------|--------------------|


  S S S Q    S S    S E  S E  S E     E  S E  S T T T T T T    E  Q.     S  
-----------------|-------1----0----|------------------------|--------------|
--1-0---3----1-0-|--1--------------|--3-------1-------------|--------------|
------2----------|-----------------|-----1-2----1---1-------|--------------|
-----------------|-----------------|--------------3---3-2-3-|--2-----------|
-----------------|-----------------|------------------------|--------------|
-----------------|-----------------|------------------------|--------------|


  S S S S S S E.     S S S S S S S S S    S S S S S S S S S    S E  S E  S E   
------------------|--------------------|--------------------|-----------------|
------------------|--------------------|--------------------|-----------------|
----------0-------|------0-2-3-2-0-2-0-|----0---------------|-----------------|
----0-2-3---3-2---|--L-3---------------|--3---3-2-3-2-0-2-0-|-------0----2----|
------------------|--------------------|--------------------|--4--------------|
------------------|--------------------|--------------------|-----------------|


  Q    S S T T T T S    S S S T T T T T T T T T T T T    S S S S S S S S S  
---------------------|--------------------------------|------3-----1-----0-|
---------------------|--------3-2---2-3-2-3-2-3-2---2-|--3-----1-----------|
---------2-2-0-2-0---|--0---------3---------------3---|----3-----2---3-0---|
--3----L-----------3-|----3-2-------------------------|--------------------|
---------------------|--------------------------------|--------------------|
---------------------|--------------------------------|--------------------|


  S S S S S S S S S    S S S S S S S S S    Q    S S S S S    S E  S E  S E   
------0-------------|--------------------|-----------------|-----------------|
------------3-----2-|--3-----------------|-----------------|-----------------|
--2-0---2-----0-----|----2---------------|---------0---0---|-----------------|
----------3-----2---|------3-0-2-3-2-3-0-|--2----3---3---2-|--3----2----0----|
--------------------|--------------------|-----------------|-----------------|
--------------------|--------------------|-----------------|-----------------|


  S E  S E  S E     S S S S S S E  S    S S S S S S S S S    S S S S S S S S S  
-----------------|-------------------|--------------------|--------------------|
-----------------|--------------2----|--------------------|--------------------|
-----------------|--------3-2-0------|----0---------------|--------------------|
-------0----2----|--3-2-0------------|------0---0-2-------|--0-----------------|
--4--------------|-------------------|--------4-----0-2-4-|------1-3---0-1-----|
-----------------|-------------------|--------------------|----3-----1-----0-3-|


  S S S S S S S S S    E.  S S S S S S    S S S S S S S S S    S E  S E  S E   
--------------------|------------------|--------------------|-----------------|
----------3-1-------|------------------|--------------------|-----------------|
----2-0-------3-2-3-|--2---------------|--------0---0-2-0-2-|--3----2----0----|
--------3-----------|------0---0-2-0-2-|--3-2-3---3---------|-----------------|
--0-----------------|--------4---------|--------------------|-----------------|
--------------------|------------------|--------------------|-----------------|


  S Q    S E  S    E  S E  S E  S    E  S E  S E  S    S S S S S S S S S  
----------------|-----3-1-------0-|-----------------|--------------------|
----------------|-----------------|--3-------3-2----|--------------------|
--0-----------0-|--2-------2-0----|-----------------|--------------0-2-3-|
----3----2-3----|-----------------|-----3-2-------2-|--2-0---0-2-3-------|
----------------|-----------------|-----------------|------4-------------|
----------------|-----------------|-----------------|--------------------|


  S S S S S S S S S    S S S S S S S S S    S S S S S S S S S  
----------------0-1-|--1---0-0-----------|--------------------|
----------0-2-3-----|----3-----2-3-3-0-1-|--1-----------------|
--3-2-0-2-----------|--------------------|----2-3-3-0-2-2---0-|
--------------------|--------------------|----------------3---|
--------------------|--------------------|--------------------|
--------------------|--------------------|--------------------|


  S E.  S S S S S    S E.  S S S S S    T T T T T T T T T T T T T T T T T T  
------------------|----------0-1-0---|--5-4-2-4-5-4-5-4-5-4-5-4-5-4-5-4-5-4-|
------------------|--3-2---3-------3-|--------------------------------------|
--0-----0-2-3-2-0-|------------------|--------------------------------------|
----3-------------|------------------|--------------------------------------|
------------------|------------------|--------------------------------------|
------------------|------------------|--------------------------------------|


  E  E.  S E  S    S S S S S S E.     S S S S S S E.     S S S S S S S S S  
--5-----------0-|----------0-------|----3-1-0---------|----------0-1-0-1---|
----------------|----0-------6-----|----------3-2-3---|--L-0-2-3---------3-|
---------6-7----|------6-7-----0---|--L---------------|--------------------|
----------------|--7---------------|------------------|--------------------|
----------------|------------------|------------------|--------------------|
----------------|------------------|------------------|--------------------|


  S S S Q    S S    S S S S S S S S S    S S S S S S S S S    S S S E  S E  S  
------0----------|--------------------|------3---0---------|------------------|
--2-3------------|------------3-1-----|----3---2-----------|-----------3------|
--------2----3-0-|----0-----2-----3-2-|--3---------2-3-2-0-|----0--------0----|
-----------------|--3---2-3-----------|--------------------|--3---2-3-------3-|
-----------------|--------------------|--------------------|------------------|
-----------------|--------------------|--------------------|------------------|


  S S S S S S T T T T T T    Q.     E  S   
--------------------------|--------------||
--------------------------|--------------||
----2-0-------------------|--------------||
--2-----3-2-0-0---0---0---|--0-----------||
----------------4---4---4-|--------------||
--------------------------|--------------||




Duration Legend
---------------
W - whole
H - half
Q - quarter
E - 8th
S - 16th
T - 32nd
X - 64th
. - note dotted
|-n-|  - n-tuplets


Tablature Legend
----------------
L - tied note
x - dead note
g - grace note
(n) - ghost note
> - accentuded note
NH - natural harmonic
AH - artificial harmonic
TH - tapped harmonic
SH - semi harmonic
PH - pitch harmonic
h - hammer on
p - pull off
b - bend
br - bendRelease
pb - preBend
pbr - preBendRelease
brb - bendReleaseBend
\n/ - tremolo bar dip
\n - tremolo bar dive
-/n - tremolo bar Release up
/n\ - tremolo bar inverted dip
/n - tremolo bar return
-\n - tremolo bar Release down
S - shift slide
s - legato slide
/ -  slide into from below or out of upwards
\ -  slide into from above or out of downwards
~ - vibrato
W - wide vibrato
tr - trill
TP - tremolo picking
T - tapping
S - slap
P - pop
< - fade in
^ - brush up
v - brush down
Добавлено: 27.03.2012
Другие материалы по этой песне:

Страница создана 23.03.2012
http://primanota.ru/johann-sebastian-bach/bwv-1080-contrapunctus-xii-canon-alla-ottava-chords.htm
Привет, Гость.
Предлагаем пройти революционный курс по гитаре.
Подарок от PrimaNota.Ru, забирай!