PrimaNota.ru - самый крупный в мире бесплатный архив песенных текстов, аккордов, табулатур и нот


Бах Иоганн Себастьян - Bwv 1080 - Contrapunctus Ii - таба, видео

Регистрация Запомнить меня
Войти через:  Facebook Google Twitter Vk Yandex Mail.ru

Бах Иоганн Себастьян - Bwv 1080 - Contrapunctus Ii - таба, видео

Печатать
Просмотров: 164
Composer: Johann Sebastian Bach
The Art Of The Fugue - BWV 1080 - Contrapunctus II



Cello



     H        H           H        H           H        Q    Q     
E||--------------------|--------------------|---------------------|
B||--------------------|--------------------|---------------------|
G||-----------2--------|--------------------|---------------------|
D||--0-----------------|--3--------0--------|-----------0----2----|
A||--------------------|--------------------|--4------------------|
E||--------------------|--------------------|---------------------|


  H        E.  S E.  S    E.  S E.  Q    S E.  S    E.  S E.  S E.  S E.  S  
-----------------------|-------------------------|--------------------------|
-----------------------|-------------------------|--------------------------|
---------------0-------|-------------------------|--------------------------|
--3--------L-----3---2-|--0---2-0--------0-------|--------------0---2-3---0-|
-----------------------|------------3------3---2-|--L---0-2---3-------------|
-----------------------|-------------------------|--------------------------|


  E.  S E.  S E.  S E.  S    E.  S E.  S Q    Q       E.  S E.  S H         
--------------------------|------------------------|-----------------------|
--------------------------|------------------------|-----------------------|
--------------------------|------2-1---2------0----|--L--------------------|
--2---3-2---0-------------|--------------0---------|------3-2---0----------|
--------------3---2-0-----|--0---------------------|--------------4--------|
------------------------4-|------------------------|-----------------------|


  Q    Q    E.  S Q       E.  S E.  S Q    Q       E.  S E.  S E.  S E.  S  
-----------------------|------------------------|--------------------------|
-----------------------|------------------------|--------------------------|
-----------------------|------------------------|--------------0---3-2---0-|
--0--------------------|------------------------|------0-2---3-------------|
----------------0-1----|--L---1-0---------------|--------------------------|
------------3----------|------------3-1----0----|--------------------------|


  E.  S E.  S E.  S E.  S    H        H           E.  S E.  S Q    Q     
--------------------------|--------------------|------------------------|
--------------------------|--------------------|------------------------|
------0-----------------0-|--2-----------------|------------------------|
--3-----3---2-0---2-3-----|-----------3--------|--L---3-2---0-----------|
--------------------------|--------------------|--------------3----2----|
--------------------------|--------------------|------------------------|


  E.  S E.  S Q    Q       H        E.  S E.  S    H        E.  S E.  S  
------------------------|-----------------------|-----------------------|
------------------------|-----------------------|-----------------------|
------------------------|-----------------------|-----------------------|
--------------0----2----|--3--------L---2-0-----|--0--------0-----------|
------0-2---3-----------|---------------------4-|---------------3-1---0-|
------------------------|-----------------------|-----------------------|


  H        E.  S E.  S    H.           E.  S    W                 
-----------------------|---------------------|-------------------|
-----------------------|---------------------|-------------------|
-----------------------|---------------------|-------------------|
-----------------------|---------------------|-------------------|
--1--------L---0-------|---------------------|-------------------|
-----------------3---2-|--3------------L---1-|--0----------------|


  H        H           Q    H.              E.  S E.  S E.  S E.  S  
--------------------|--------------------|--------------------------|
--------------------|--------------------|--------------------------|
--------------------|--------------------|--------------0---2-0-----|
-----------2--------|--------------------|------0-2---3-----------3-|
--------------------|--0-----------------|--------------------------|
--L-----------------|--------------------|--------------------------|


  E.  S E.  S E.  S E.  S    Q    Q    Q    Q       H        H         
--------------------------|----------------------|--------------------|
--------------------------|----------------------|--------------------|
------3-2---0-------------|----------------------|--------------------|
--2-----------3---2-0-----|--0----3---------2----|-----------0--------|
------------------------4-|------------2---------|--0-----------------|
--------------------------|----------------------|--------------------|


  E.  S E.  S Q    Q       Q    H.              W                 
------------------------|--------------------|-------------------|
------------------------|--------------------|-------------------|
------------------------|--------------------|-------------------|
--L-----2---0-----------|--------------------|-------------------|
------2-------3----2----|--0-----------------|-------------------|
------------------------|--------------------|-------------------|


  H        H           H        H           H        Q    Q     
--------------------|--------------------|---------------------|
--------------------|--------------------|---------------------|
-----------2--------|--------------------|---------------------|
--0-----------------|--3--------0--------|-----------0----2----|
--------------------|--------------------|--4------------------|
--------------------|--------------------|---------------------|


  H        E.  S E.  S    Q    H.              Q    Q.     S S E.  S  
-----------------------|--------------------|------------------------|
-----------------------|--------------------|------------------------|
---------------0-------|--------------------|-------0------L---------|
--3--------L-----3---2-|--0-----------------|----------------3-2---0-|
-----------------------|--------------------|------------------------|
-----------------------|--------------------|------------------------|


  H        H           W                   W                 
--------------------|-------------------|-------------------|
--------------------|-------------------|-------------------|
--------------------|-------------------|-------------------|
--2-----------------|-------------------|-------------------|
--------------------|-------------------|-------------------|
--------------------|-------------------|-------------------|


  E.  S E.  S Q    Q       Q    H        Q       H        H         
------------------------|---------------------|--------------------|
------------------------|---------------------|--------------------|
------------------------|----------------1----|--2-----------------|
------3-2---0------3----|--L----4-------------|--------------------|
--------------3---------|---------------------|--------------------|
------------------------|---------------------|--------------------|


  W                   W                   W                   W                 
-------------------|-------------------|-------------------|-------------------|
-------------------|-------------------|-------------------|-------------------|
-------------------|-------------------|-------------------|-------------------|
-------------------|-------------------|-------------------|-------------------|
-------------------|-------------------|-------------------|-------------------|
-------------------|-------------------|-------------------|-------------------|


  W                   W                   W                   W                 
-------------------|-------------------|-------------------|-------------------|
-------------------|-------------------|-------------------|-------------------|
-------------------|-------------------|-------------------|-------------------|
-------------------|-------------------|-------------------|-------------------|
-------------------|-------------------|-------------------|-------------------|
-------------------|-------------------|-------------------|-------------------|


  E.  S E.  S E.  S E.  S    E.  S E.  S H           H        H         
--------------------------|-----------------------|--------------------|
--------------------------|-----------------------|--------------------|
--------------------------|------0-----0----------|--------------------|
------1-0-----------------|--------4--------------|-----------3--------|
------------3-1---0-------|--------------3--------|--L-----------------|
--------------------3---2-|--3--------------------|--------------------|


  H        H           H        Q    Q       H        E.  S E.  S  
--------------------|---------------------|-----------------------|
--------------------|---------------------|-----------------------|
--------------------|---------------------|-----------------------|
--0-----------------|---------------------|--0--------L---1-0-----|
-----------1--------|--0--------1----3----|---------------------3-|
--------------------|---------------------|-----------------------|


  E.  S E.  S Q    Q       H        E.  S E.  S    W                 
------------------------|-----------------------|-------------------|
------------------------|-----------------------|-------------------|
------3-2---3-----------|--0--------L-----------|--3----------------|
--------------2----4----|---------------3-2---0-|-------------------|
--1---------------------|-----------------------|-------------------|
------------------------|-----------------------|-------------------|


  Q    H.              H        H           H        H         
--------------------|--------------------|--------------------|
--------------------|--------------------|--------------------|
--2-----------------|-----------2--------|--------------------|
--------------------|--0-----------------|--3--------0--------|
--------------------|--------------------|--------------------|
--------------------|--------------------|--------------------|


  H        Q    Q       H        E.  S E.  S    H        E.  S E.  S  
---------------------|-----------------------|-----------------------|
---------------------|-----------------------|-----------------------|
---------------------|---------------0-------|-----------------------|
-----------0----2----|--3--------L-----3---2-|--0--------L---1-0-----|
--4------------------|-----------------------|---------------------3-|
---------------------|-----------------------|-----------------------|


  H        E.  S E.  S    E.  S E.  S E.  S E.  S    Q    Q    Q    Q     
-----------------------|--------------------------|----------------------|
-----------------------|--------------------------|----------------------|
-----------------------|--------------0---2-0-----|-------2---------0----|
-----------------------|------0-2---4-----------3-|--2---------0---------|
--1--------L---3-1---0-|--------------------------|----------------------|
-----------------------|--3-----------------------|----------------------|


  H        H           H        H           H        H         
--------------------|--------------------|--------------------|
--------------------|--------------------|--------------------|
--------------------|--------------------|--------------------|
-----------0--------|--2--------3--------|--------------------|
--4-----------------|--------------------|--2--------3--------|
--------------------|--------------------|--------------------|


  Q    Q    H           Q    Q    H           Q    Q    Q    Q     
---------------------|---------------------|----------------------|
---------------------|---------------------|----------------------|
---------------------|------------0--------|--L-------------------|
-------0----2--------|--3----0-------------|------------0---------|
--L------------------|---------------------|-------4---------0----|
---------------------|---------------------|----------------------|


  H.           Q       W                   W                 
--------------------|-------------------|-------------------|
--------------------|-------------------|-------------------|
--------------------|-------------------|-------------------|
--------------------|-------------------|-------------------|
--1-----------------|--0----------------|--L----------------|
---------------3----|-------------------|-------------------|


  H        E.  S E.  S    E.  S E.  Q    S E.  S    Q    Q.     S S E.  S  
-----------------------|-------------------------|------------------------|
-----------------------|-------------------------|------------------------|
-----------------------|-------------------------|------------------------|
-----------------------|-------------------------|------------------------|
--L--------L---1-0-----|------0------------------|------------------------|
---------------------3-|--L-----3---1----3-1---0-|----------------0-1---3-|


  H        E.  S E.  S    E.  S E.  S Q    Q       E.  S E.  S E.  S E.  S  
-----------------------|------------------------|--------------------------|
-----------------------|------------------------|--------------------------|
-----------------------|------------------------|--------------------------|
-----------------------|------------------------|--------------------------|
--0------------1-0-----|--0----------------0----|--1---3-1---0-----0-1-----|
---------------------3-|------1-0-----3---------|--------------3---------3-|


  H        H          
--------------------||
--------------------||
--------------------||
--0-----------------||
--------------------||
--------------------||












Viola



     W                   W                   W                 
E||-------------------|-------------------|-------------------|
B||-------------------|-------------------|-------------------|
G||-------------------|-------------------|-------------------|
D||-------------------|-------------------|-------------------|
A||-------------------|-------------------|-------------------|
E||-------------------|-------------------|-------------------|


  W                   H        H           H        H         
-------------------|--------------------|--------------------|
-------------------|-----------3--------|--1-----------------|
-------------------|--2-----------------|-----------2--------|
-------------------|--------------------|--------------------|
-------------------|--------------------|--------------------|
-------------------|--------------------|--------------------|


  H        Q    Q       H        E.  S E.  S    H        E.  S E.  S  
---------------------|-----------------------|---------------3-1---0-|
----------------0----|--1--------L---3-1-----|-----------------------|
--1--------2---------|---------------------3-|--2--------L-----------|
---------------------|-----------------------|-----------------------|
---------------------|-----------------------|-----------------------|
---------------------|-----------------------|-----------------------|


  E.  S E.  S E.  S E.  S    H        E.  S E.  S    H.           Q     
--------------------------|-----------------------|--------------------|
--3---1-------------------|-----------------0---2-|--3------------2----|
--------3---2-3---2-0-----|---------------2-------|--------------------|
------------------------3-|--2--------------------|--------------------|
--------------------------|-----------------------|--------------------|
--------------------------|-----------------------|--------------------|


  Q.     S S H           Q    H        Q       H        E.  S E.  S  
-----------0-1--------|--0------------------|-----------------------|
--3-------------------|-------1-------------|--0--------------------|
----------------------|----------------2----|---------------------1-|
----------------------|---------------------|---------------2-4-----|
----------------------|---------------------|-----------------------|
----------------------|---------------------|-----------------------|


  H.           Q       Q    E.  S Q    Q       E.  S E.  S Q    Q     
--------------------|-----------------------|------------------------|
--------------------|-------0---2-3---------|------------------------|
--2------------1----|--2---------------0----|--L---0-----------------|
--------------------|-----------------------|--------3---2-3----4----|
--------------------|-----------------------|------------------------|
--------------------|-----------------------|------------------------|


  E.  S E.  S Q    Q       E.  S E.  S E.  S Q       Q    H.            
------------------------|-------------------------|--------------------|
------------------------|-------------------------|--------------------|
--------------0---------|-------------------------|--------------------|
--L---0-2---4-----------|--------------0-----0----|--2-----------------|
-------------------3----|--L---0-1---3-----4------|--------------------|
------------------------|-------------------------|--------------------|


  H        H           Q    Q.     S S E.  S    Q    H        Q     
--------------------|------------------------|---------------------|
--------------------|------------------0---2-|--3----1-------------|
-----------1--------|----------------2-------|----------------3----|
--------------------|--2---------------------|---------------------|
--------------------|------------------------|---------------------|
--------------------|------------------------|---------------------|


  E.  S E.  S H           E.  S E.  S Q    Q       E.  S E.  S H         
-----------------------|------------------------|-----------------------|
-----------------------|------3-2---3------0----|--L--------------------|
--L---0-------2--------|--L-----------1---------|--------2---0----------|
--------3---2----------|------------------------|------2-------3--------|
-----------------------|------------------------|-----------------------|
-----------------------|------------------------|-----------------------|


  Q    Q    H           E.  S E.  S Q    Q       H        Q    Q     
---------------------|------3-1---0------0----|---------------------|
---------------------|--------------4---------|-----------0----2----|
---------------------|------------------------|--2------------------|
--L----2-------------|------------------------|---------------------|
---------------------|------------------------|---------------------|
---------------------|------------------------|---------------------|


  H        H           E.  S E.  S E.  S E.  S    Q    Q    Q    Q     
--------------------|------------------0-1-----|--0-------------------|
--3-----------------|--------0---2-3---------3-|----------------------|
--------------------|------2-------------------|-----------------0----|
--------------------|--------------------------|-------2----3---------|
--------------------|--------------------------|----------------------|
--------------------|--------------------------|----------------------|


  Q    H.              Q    Q.     S S E.  S    Q    Q    Q    Q     
--------------------|------------------------|----------------------|
--------------------|-------3------L-1-------|-------0----2----3----|
--2-----------------|------------------3---2-|--3-------------------|
--------------------|------------------------|----------------------|
--------------------|------------------------|----------------------|
--------------------|------------------------|----------------------|


  E.  S E.  S Q    Q       H        H           H        H         
-------------------0----|--------------------|--------------------|
--L---1-0-----0---------|-----------3--------|--1-----------------|
------------2-----------|--2-----------------|-----------2--------|
------------------------|--------------------|--------------------|
------------------------|--------------------|--------------------|
------------------------|--------------------|--------------------|


  H        Q    Q       H        E.  S E.  S    H        E.  S E.  S  
---------------------|-----------------------|-----------------------|
----------------0----|--1--------L---3-1---0-|-----------------------|
--1--------2---------|-----------------------|--2--------L---0-------|
---------------------|-----------------------|-----------------3---2-|
---------------------|-----------------------|-----------------------|
---------------------|-----------------------|-----------------------|


  Q    Q    Q    Q       Q    E.  S E.  S Q       E.  S E.  S H         
----------------------|------------------------|-----------------------|
----------------------|------------------------|-----------------------|
-------3---------2----|-------------0---2-3----|--L---2-0--------------|
--3---------2---------|--0----2---3------------|------------3-2--------|
----------------------|------------------------|-----------------------|
----------------------|------------------------|-----------------------|


  Q    H        Q       E.  S E.  S E.  S E.  S    E.  S E.  S Q    Q     
---------------------|--------------------------|------1-0---1-----------|
---------------------|------3-1-----------------|-------------------4----|
----------------3----|--L---------3-2---0-------|--------------3---------|
--3------------------|--------------------3---2-|--3---------------------|
---------------------|--------------------------|------------------------|
---------------------|--------------------------|------------------------|


  E.  S E.  S E.  S E.  S    E.  S H        E.  S    Q    Q    H         
--------------------------|-----------------------|---------------------|
--L---4-3---1-------------|-----------------------|--1----4----3--------|
--------------3---2-0-----|--0---2-3--------2---3-|---------------------|
------------------------4-|-----------------------|---------------------|
--------------------------|-----------------------|---------------------|
--------------------------|-----------------------|---------------------|


  Q    Q    Q    Q       E.  S E.  S E.  S E.  S    Q    H.            
------------0----1----|--L---1-------------------|--------------------|
--L----3--------------|--------4---3-1-----------|--------------------|
----------------------|------------------3-2---0-|--------------------|
----------------------|--------------------------|--3-----------------|
----------------------|--------------------------|--------------------|
----------------------|--------------------------|--------------------|


  Q    Q    Q    Q       Q    H        Q       H        E.  S E.  S  
----------------------|---------------------|--1--------------------|
----------------------|----------------4----|---------------1-------|
----------------------|-------3-------------|-----------------3---2-|
------------0----1----|--3------------------|-----------------------|
-------3--------------|---------------------|-----------------------|
----------------------|---------------------|-----------------------|


  Q    Q    Q    Q       E  H.           E     Q    H        Q     
----------------------|---------------------|---------------------|
-------4----2----3----|--L------------------|-------3--------2----|
--0-------------------|---------------------|---------------------|
----------------------|---------------------|---------------------|
----------------------|---------------------|---------------------|
----------------------|---------------------|---------------------|


  H        H           Q    E.  S Q    Q       Q    Q    Q    Q     
-----------0--------|-----------------------|----------------------|
--3-----------------|-------0---2-3---------|----------------------|
--------------------|--2--------------------|-----------------0----|
--------------------|-----------------------|-------2----3---------|
--------------------|-----------------------|----------------------|
--------------------|-----------------------|----------------------|


  H        H           E.  S E.  S Q    Q       Q    H.            
--------------------|------------------------|--------------------|
--------------------|--------0---2-3---------|--------------------|
--2-----------------|------2-----------------|--0-----------------|
--------------------|-------------------4----|--------------------|
--------------------|------------------------|--------------------|
--------------------|------------------------|--------------------|


  W                   W                   Q    H        Q     
-------------------|-------------------|---------------------|
-------------------|-------------------|----------------3----|
-------------------|-------------------|-------2-------------|
-------------------|-------------------|---------------------|
-------------------|-------------------|---------------------|
-------------------|-------------------|---------------------|


  Q    H        Q       Q    Q    Q    Q       H        E.  S E.  S  
---------------------|----------------------|-----------------------|
--L----1-------------|-----------------0----|--1--------L---3-2---0-|
----------------2----|--L----1----2---------|-----------------------|
---------------------|----------------------|-----------------------|
---------------------|----------------------|-----------------------|
---------------------|----------------------|-----------------------|


  H        H           E.  S E.  S E.  S E.  S    Q    E.  S E.  S E.  S  
--------------------|--------------------------|-------------------------|
--------------------|--------------------------|-------------------------|
--2--------3--------|--L---3-2---0-------------|-------------0-----------|
--------------------|--------------3---2-0-----|--0----2---4-----3-2---0-|
--------------------|------------------------4-|-------------------------|
--------------------|--------------------------|-------------------------|


  H        H           H        H           H        Q    Q     
--------------------|--------------------|---------------------|
--------------------|--------------------|---------------------|
--------------------|--------------------|----------------2----|
-----------0--------|--2--------3--------|--2------------------|
--4-----------------|--------------------|---------------------|
--------------------|--------------------|---------------------|


  H        H           E.  S E.  S E.  S E.  S    E.  S E.  S H         
--------------------|--------------------------|-----------------------|
--------------------|--------------------------|-----------------------|
--2-----------------|--------------0---2-0-----|------0----------------|
--------------------|------0-2---3-----------3-|--2-----3---2-0--------|
--------------------|--------------------------|-----------------------|
--------------------|--------------------------|-----------------------|


  Q    H        Q       Q    E.  S H           E.  S E.  S H          
---------------------|----------------------|-----------------------||
---------------------|----------------------|-----------------------||
---------------------|-------------0--------|--L-----0--------------||
-------0-------------|--0----2---4----------|------4-----2-4--------||
--4-------------4----|----------------------|-----------------------||
---------------------|----------------------|-----------------------||












Violin 1



     W                   W                   W                 
E||-------------------|-------------------|-------------------|
B||-------------------|-------------------|-------------------|
G||-------------------|-------------------|-------------------|
D||-------------------|-------------------|-------------------|
A||-------------------|-------------------|-------------------|
E||-------------------|-------------------|-------------------|


  W                   W                   W                   W                 
-------------------|-------------------|-------------------|-------------------|
-------------------|-------------------|-------------------|-------------------|
-------------------|-------------------|-------------------|-------------------|
-------------------|-------------------|-------------------|-------------------|
-------------------|-------------------|-------------------|-------------------|
-------------------|-------------------|-------------------|-------------------|


  W                   H        H           H        H         
-------------------|-----------5--------|--------------------|
-------------------|--3-----------------|--6-----------------|
-------------------|--------------------|-----------7--------|
-------------------|--------------------|--------------------|
-------------------|--------------------|--------------------|
-------------------|--------------------|--------------------|


  H        Q    Q       H        E.  S E.  S    E.  S E.  S H         
---------------------|---------------3-1---0-|------0-1---3-5--------|
----------------5----|--6--------L-----------|--3--------------------|
--6--------7---------|-----------------------|-----------------------|
---------------------|-----------------------|-----------------------|
---------------------|-----------------------|-----------------------|
---------------------|-----------------------|-----------------------|


  E.  S E.  Q    S E.  S    E.  S E.  S Q    Q       Q    Q    Q    Q     
--L---3-1---0----1-0-----|--------0---1-0---------|-------0----1----0----|
-----------------------3-|--L---3------------3----|--1-------------------|
-------------------------|------------------------|----------------------|
-------------------------|------------------------|----------------------|
-------------------------|------------------------|----------------------|
-------------------------|------------------------|----------------------|


  E.  S E.  S Q    Q       E.  S E.  S Q    Q       Q    E.  S Q    Q     
--L---------0-1----0----|--L---0-----------------|-----------------------|
------2-3---------------|--------3---2-3----1----|--L--------------------|
------------------------|------------------------|-------3---2-3----2----|
------------------------|------------------------|-----------------------|
------------------------|------------------------|-----------------------|
------------------------|------------------------|-----------------------|


  E.  S E.  S Q    Q       Q    H.              H        H         
------------------------|--------------------|--------------------|
------------------------|--------------------|-----------0--------|
--L-----0---2-3----2----|--1-----------------|--------------------|
------4-----------------|--------------------|--------------------|
------------------------|--------------------|--------------------|
------------------------|--------------------|--------------------|


  E.  S E.  S H           H        H           H        Q    Q     
------0-1---3-5--------|--------------------|---------------------|
-----------------------|--6-----------------|----------------5----|
--2--------------------|-----------7--------|--6--------7---------|
-----------------------|--------------------|---------------------|
-----------------------|--------------------|---------------------|
-----------------------|--------------------|---------------------|


  H        E.  S E.  S    H        E.  S E.  S    H        E.  S E.  S  
---------------5-4---2-|--0--------L-----------|---------------0-2---4-|
--6--------L-----------|-----------------3---1-|--0--------------------|
-----------------------|---------------2-------|-----------------------|
-----------------------|-----------------------|-----------------------|
-----------------------|-----------------------|-----------------------|
-----------------------|-----------------------|-----------------------|


  H.           Q       E.  S E.  S Q    Q       H        H         
--5------------4----|--5---3-1---0------3----|--1--------0--------|
--------------------|--------------3---------|--------------------|
--------------------|------------------------|--------------------|
--------------------|------------------------|--------------------|
--------------------|------------------------|--------------------|
--------------------|------------------------|--------------------|


  H        H           E.  S E.  S E.  S E.  S    Q     Q    Q    Q     
--------------------|------6-5---3-1---0-------|-------10----7----9----|
--3-----------------|--------------------3---2-|--3--------------------|
--------------------|--------------------------|-----------------------|
--------------------|--------------------------|-----------------------|
--------------------|--------------------------|-----------------------|
--------------------|--------------------------|-----------------------|


   Q    H        Q       E.  S E.  S H           Q    Q    Q    Q     
--10-------------8----|--L---6-5---3-5--------|--4----8--------------|
----------------------|-----------------------|------------7----9----|
----------------------|-----------------------|----------------------|
----------------------|-----------------------|----------------------|
----------------------|-----------------------|----------------------|
----------------------|-----------------------|----------------------|


   E.   S  E.  S  E.   S E.   S    E.  S E.  S  E.  S E.  S  
--------------------------------|-------------------7-8---5-|
--10---11-10---8------10-8------|--------7---9-10-----------|
-----------------10----------10-|--L---9--------------------|
--------------------------------|---------------------------|
--------------------------------|---------------------------|
--------------------------------|---------------------------|


  H        E.  S E.  S    E.  S H        Q       Q    Q    Q    Q     
--7--------L---5-4---5-|--------5--------0----|--L----1---------3----|
-----------------------|--4-------------------|------------3---------|
-----------------------|------2---------------|----------------------|
-----------------------|----------------------|----------------------|
-----------------------|----------------------|----------------------|
-----------------------|----------------------|----------------------|


  E.  S E.  Q    S E.  S    H.           Q       H        E.  S E.  S  
------1-0--------0-------|---------------3----|-----------------------|
--1---------3------3---2-|--3-----------------|--1--------L-----------|
-------------------------|--------------------|---------------3-2---0-|
-------------------------|--------------------|-----------------------|
-------------------------|--------------------|-----------------------|
-------------------------|--------------------|-----------------------|


  E.  S E.  S E.  S  E.   S    Q    Q    H           H         Q    E.  S  
------1-3---5-6---8-10------|--8---------8--------|--L--------10----8---6-|
-------------------------11-|-------8-------------|-----------------------|
----------------------------|---------------------|-----------------------|
--3-------------------------|---------------------|-----------------------|
----------------------------|---------------------|-----------------------|
----------------------------|---------------------|-----------------------|


  H         H           H        H           H        Q    Q     
--5--------10--------|--6-----------------|----------------5----|
---------------------|-----------8--------|--7--------8---------|
---------------------|--------------------|---------------------|
---------------------|--------------------|---------------------|
---------------------|--------------------|---------------------|
---------------------|--------------------|---------------------|


  H        E.  S E.  S    Q    Q    Q    Q       E.  S E.  S E.  S  E.   S  
--6--------L---8-6---5-|--3----6----5----8----|--L---------5-6---8-10------|
-----------------------|----------------------|------6-8----------------11-|
-----------------------|----------------------|----------------------------|
-----------------------|----------------------|----------------------------|
-----------------------|----------------------|----------------------------|
-----------------------|----------------------|----------------------------|


  H         H           E.  S E.  S Q    Q       H        H         
--8------------------|-------------------5----|--6-----------------|
---------------------|------9-8---6-8---------|--------------------|
-----------10--------|--L---------------------|--------------------|
---------------------|------------------------|--------------------|
---------------------|------------------------|--------------------|
---------------------|------------------------|--------------------|


  E.  S E.  S Q    Q       E.  S E.  S H           Q    Q    Q    Q     
------3-2---3-0----1----|--L-----------3--------|--L----1----0----5----|
------------------------|------3-2---3----------|----------------------|
------------------------|-----------------------|----------------------|
------------------------|-----------------------|----------------------|
------------------------|-----------------------|----------------------|
------------------------|-----------------------|----------------------|


  Q    H.              E.  S E.  Q    S E.  S    Q    Q    H         
--L-----------------|------6-5---3----5-3---1-|--0------------------|
--------------------|-------------------------|---------------------|
--------------------|-------------------------|-------2----3--------|
--------------------|-------------------------|---------------------|
--------------------|-------------------------|---------------------|
--------------------|-------------------------|---------------------|


  Q    Q    Q    Q        Q    H.              E.  S  E.   S H         
-------5----7----9----|--10-----------------|----------------8--------|
----------------------|---------------------|------8-10---11----------|
--2-------------------|---------------------|-------------------------|
----------------------|---------------------|-------------------------|
----------------------|---------------------|-------------------------|
----------------------|---------------------|-------------------------|


  Q    E.  S Q    Q       H        H           H        Q    Q     
--L----6---5-6----5----|--3--------1--------|--0-------------1----|
-----------------------|--------------------|-----------3---------|
-----------------------|--------------------|---------------------|
-----------------------|--------------------|---------------------|
-----------------------|--------------------|---------------------|
-----------------------|--------------------|---------------------|


  E.  S Q.     S S Q       Q.     S  S E.  S E.  S    H        Q     Q     
--L---1-0------L-0------|-----------10-8---7-5---4-|--5-------------12----|
-------------------3----|--------------------------|----------------------|
------------------------|--------------------------|----------------------|
------------------------|--------------------------|----------------------|
------------------------|--------------------------|----------------------|
------------------------|--------------------------|----------------------|


  E.   S  E.  S E.  S E.  S    H        E.  S E.  S    E.  S E.  S H         
--L------10---8-6---5-3---1-|--0--------L---3-1---0-|-----------------------|
------10--------------------|-----------------------|--3---1----------------|
----------------------------|-----------------------|--------3---2-3--------|
----------------------------|-----------------------|-----------------------|
----------------------------|-----------------------|-----------------------|
----------------------------|-----------------------|-----------------------|


  H.           Q       H        H           H        Q    Q     
--------------------|--------------------|---------------------|
---------------0----|--2-----------------|----------------2----|
--2-----------------|-----------1--------|--2------------------|
--------------------|--------------------|---------------------|
--------------------|--------------------|---------------------|
--------------------|--------------------|---------------------|


  E.  S E.  S E.  S E.  S    Q    H        Q       E.  S E.  S Q    Q     
------1-0-----------------|---------------------|------------------------|
--3---------3-2-----0---2-|--3----1-------------|------------------------|
------------------2-------|----------------3----|--L---3-2---0------3----|
--------------------------|---------------------|--------------3---------|
--------------------------|---------------------|------------------------|
--------------------------|---------------------|------------------------|


  H        Q    Q       E.  S E.  S H           E.  S E.  S H          
---------------------|-----------------------|-----------------------||
---------------------|-----------------------|-----------------------||
--2--------3----2----|--L-----0---2-3--------|--L---2-3---0-2--------||
---------------------|------4----------------|-----------------------||
---------------------|-----------------------|-----------------------||
---------------------|-----------------------|-----------------------||












Violin 2



     W                   W                   W                 
E||-------------------|-------------------|-------------------|
B||-------------------|-------------------|-------------------|
G||-------------------|-------------------|-------------------|
D||-------------------|-------------------|-------------------|
A||-------------------|-------------------|-------------------|
E||-------------------|-------------------|-------------------|


  W                   W                   W                   W                 
-------------------|-------------------|-------------------|-------------------|
-------------------|-------------------|-------------------|-------------------|
-------------------|-------------------|-------------------|-------------------|
-------------------|-------------------|-------------------|-------------------|
-------------------|-------------------|-------------------|-------------------|
-------------------|-------------------|-------------------|-------------------|


  W                   W                   W                   W                 
-------------------|-------------------|-------------------|-------------------|
-------------------|-------------------|-------------------|-------------------|
-------------------|-------------------|-------------------|-------------------|
-------------------|-------------------|-------------------|-------------------|
-------------------|-------------------|-------------------|-------------------|
-------------------|-------------------|-------------------|-------------------|


  W                    H         H           H         H         
-------------------|------------10--------|--8------------------|
-------------------|--10------------------|-----------10--------|
-------------------|----------------------|---------------------|
-------------------|----------------------|---------------------|
-------------------|----------------------|---------------------|
-------------------|----------------------|---------------------|


  H         Q    Q       H        E.   S E.  S    W                 
-----------------7----|--8--------L---10-8---7-|--5----------------|
--9--------10---------|------------------------|-------------------|
----------------------|------------------------|-------------------|
----------------------|------------------------|-------------------|
----------------------|------------------------|-------------------|
----------------------|------------------------|-------------------|


  W                   W                   W                 
--L----------------|-------------------|-------------------|
-------------------|--3----------------|--L----------------|
-------------------|-------------------|-------------------|
-------------------|-------------------|-------------------|
-------------------|-------------------|-------------------|
-------------------|-------------------|-------------------|


  E.  S E.  S E.  S E.  S    E.  S  E.   Q    T T E.  S    Q    H.            
------------1-0-----4---5-|--7---8-10-------------------|--------------------|
--L---2-3---------3-------|-----------------------------|--------------------|
--------------------------|-------------10----9-7-6---7-|--6-----------------|
--------------------------|-----------------------------|--------------------|
--------------------------|-----------------------------|--------------------|
--------------------------|-----------------------------|--------------------|


  W                   W                   H         H         
-------------------|-------------------|--5--------10--------|
-------------------|-------------------|---------------------|
-------------------|-------------------|---------------------|
-------------------|-------------------|---------------------|
-------------------|-------------------|---------------------|
-------------------|-------------------|---------------------|


  H         H           H         Q    Q       H        E.   S E.  S  
--8------------------|-----------------7----|--8--------L---10-8---7-|
-----------10--------|--9--------10---------|------------------------|
---------------------|----------------------|------------------------|
---------------------|----------------------|------------------------|
---------------------|----------------------|------------------------|
---------------------|----------------------|------------------------|


  Q     Q.     S  S  E.   S    E.   S  E.   Q     S  E.  S  
--8----17------L-15-13---12-|--L---13-12---10----12-10---9-|
----------------------------|------------------------------|
----------------------------|------------------------------|
----------------------------|------------------------------|
----------------------------|------------------------------|
----------------------------|------------------------------|


   H        H           W                   E.   S  E.   S  Q     Q     
--10-----------------|-------------------|------17-16---17-------15----|
---------------------|-------------------|-----------------15----------|
---------------------|-------------------|-----------------------------|
---------------------|-------------------|-----------------------------|
---------------------|-------------------|-----------------------------|
---------------------|-------------------|-----------------------------|


   E.   S  E.   S  Q     Q        Q     Q     Q     Q     
--15---13-12---10-12----17----|--------------------------|
------------------------------|--15----17----------------|
------------------------------|--------------------------|
------------------------------|--------------14----15----|
------------------------------|--------------------------|
------------------------------|--------------------------|


   Q     Q.     S  S E.  S    E.   S  Q.     S  S  E.   S  
--------12------L-10-8---7-|--8---10-12------L-13-12---10-|
---------------------------|------------------------------|
---------------------------|------------------------------|
--14-----------------------|------------------------------|
---------------------------|------------------------------|
---------------------------|------------------------------|


   Q    H.              W                   E.   S  E.   S  Q     Q     
--17-----------------|-------------------|------12-11---12-------10----|
---------------------|-------------------|-----------------10----------|
---------------------|-------------------|-----------------------------|
---------------------|-------------------|-----------------------------|
---------------------|-------------------|-----------------------------|
---------------------|-------------------|-----------------------------|


  E.  S E.  S H           E.  S E.  S H           E.  S E.  S E.  S  E.   S  
--L---8-6---5-6--------|--L---5-3---1-3--------|--L---1-3---5-6---8-10---12-|
-----------------------|-----------------------|----------------------------|
-----------------------|-----------------------|----------------------------|
-----------------------|-----------------------|----------------------------|
-----------------------|-----------------------|----------------------------|
-----------------------|-----------------------|----------------------------|


   H         H            H         H            H         Q     Q     
--13--------20--------|--17------------------|------------------15----|
----------------------|------------18--------|--17--------18----------|
----------------------|----------------------|------------------------|
----------------------|----------------------|------------------------|
----------------------|----------------------|------------------------|
----------------------|----------------------|------------------------|


   H        E.   S  E.   S     H         Q     Q     
--17--------L---18-17---15-|--14--------15----17----|
---------------------------|------------------------|
---------------------------|------------------------|
---------------------------|------------------------|
---------------------------|------------------------|
---------------------------|------------------------|


  E.   S  E.   S  E.   S E.  S    H        H           W                 
--L------15---13-11---10-8---6-|--5-----------------|-------------------|
------15-----------------------|--------------------|-------------------|
-------------------------------|--------------------|-------------------|
-------------------------------|--------------------|-------------------|
-------------------------------|--------------------|-------------------|
-------------------------------|--------------------|-------------------|


  W                   W                   E.   S  E.   S  E.  S E.  S  
-------------------|-------------------|------15-13---11-10---8-6---5-|
-------------------|-------------------|------------------------------|
-------------------|-------------------|------------------------------|
-------------------|-------------------|------------------------------|
-------------------|-------------------|------------------------------|
-------------------|-------------------|------------------------------|


  H         H           E.   S E.   S Q    Q       Q    Q    H         
--6--------11--------|--L---10-9---10------8----|--L----6----5--------|
---------------------|----------------8---------|---------------------|
---------------------|--------------------------|---------------------|
---------------------|--------------------------|---------------------|
---------------------|--------------------------|---------------------|
---------------------|--------------------------|---------------------|


  E.   S  E.   S  E.   S E.   S    E.   S  E.   S  E.   S  E.   S  
--L---13-15---13-12---10-9---10-|--9---17-18---17-15---13-12---13-|
--------------------------------|---------------------------------|
--------------------------------|---------------------------------|
--------------------------------|---------------------------------|
--------------------------------|---------------------------------|
--------------------------------|---------------------------------|


   E.   S  E.   Q     S  E.  S     Q    H         Q     
--15---13-12---10----12-10---9-|--10-------------------|
-------------------------------|-----------------11----|
-------------------------------|-----------------------|
-------------------------------|-----------------------|
-------------------------------|-----------------------|
-------------------------------|-----------------------|


  E.   S  E.  S  E.  S E.  S    E.   S  E.   S  H         
-----------------------------|------10-12---13-15--------|
--L---11-10---8--------------|---------------------------|
----------------10---9-7---6-|--7------------------------|
-----------------------------|---------------------------|
-----------------------------|---------------------------|
-----------------------------|---------------------------|


  Q     E.   S  Q     Q        H         Q     Q        H.            Q     
--L----13---12-13----17----|------------------14----|--15------------------|
---------------------------|--15--------17----------|----------------15----|
---------------------------|------------------------|----------------------|
---------------------------|------------------------|----------------------|
---------------------------|------------------------|----------------------|
---------------------------|------------------------|----------------------|


  E.   S  E.  Q     S E.  S    E.  S E.  S E.  S E.  S  
------12-10---8----10-8---6-|--L---6-5---3-1---8-6---5-|
--L-------------------------|--------------------------|
----------------------------|--------------------------|
----------------------------|--------------------------|
----------------------------|--------------------------|
----------------------------|--------------------------|


  Q.     S S Q.     S S     E.   S  Q     H         
--4--------4-5--------5-|--10---12-13----12--------|
------------------------|--------------------------|
------------------------|--------------------------|
------------------------|--------------------------|
------------------------|--------------------------|
------------------------|--------------------------|


  E.   S  E.   S  E.   S  Q       Q     H         E.   S  
--L---17-16---17------14-15----|--L----13--------12---10-|
-----------------17------------|-------------------------|
-------------------------------|-------------------------|
-------------------------------|-------------------------|
-------------------------------|-------------------------|
-------------------------------|-------------------------|


  Q     Q     H           Q     H         Q       E.   S  E.  Q     S E.   S  
--9----12--------------|-----------------------|-----------------------------|
-------------10--------|--L--------------------|------11-10---8----10-8------|
-----------------------|-----------------12----|--L-----------------------10-|
-----------------------|-------12--------------|-----------------------------|
-----------------------|-----------------------|-----------------------------|
-----------------------|-----------------------|-----------------------------|


  E.  S  E.  Q     S E.  S    E.  S E.  S E.  S E.  S    H        H         
---------------------------|--------------------------|-----------5--------|
------8--------------------|------------5-----8-6---5-|--3-----------------|
--L-----10---9----10-9---7-|--L-----6-----------------|--------------------|
---------------------------|------9-------7-----------|--------------------|
---------------------------|--------------------------|--------------------|
---------------------------|--------------------------|--------------------|


  H        H           H        Q    Q       H        E.  S E.  S  
--------------------|---------------------|---------------3-1---0-|
--6-----------------|----------------5----|--6--------L-----------|
-----------7--------|--6--------7---------|-----------------------|
--------------------|---------------------|-----------------------|
--------------------|---------------------|-----------------------|
--------------------|---------------------|-----------------------|


  W                   W                  
-------------------|-------------------||
--3----------------|--L----------------||
-------------------|-------------------||
-------------------|-------------------||
-------------------|-------------------||
-------------------|-------------------||






Duration Legend
---------------
W - whole
H - half
Q - quarter
E - 8th
S - 16th
T - 32nd
X - 64th
. - note dotted
|-n-|  - n-tuplets


Tablature Legend
----------------
L - tied note
x - dead note
g - grace note
(n) - ghost note
> - accentuded note
NH - natural harmonic
AH - artificial harmonic
TH - tapped harmonic
SH - semi harmonic
PH - pitch harmonic
h - hammer on
p - pull off
b - bend
br - bendRelease
pb - preBend
pbr - preBendRelease
brb - bendReleaseBend
\n/ - tremolo bar dip
\n - tremolo bar dive
-/n - tremolo bar Release up
/n\ - tremolo bar inverted dip
/n - tremolo bar return
-\n - tremolo bar Release down
S - shift slide
s - legato slide
/ -  slide into from below or out of upwards
\ -  slide into from above or out of downwards
~ - vibrato
W - wide vibrato
tr - trill
TP - tremolo picking
T - tapping
S - slap
P - pop
< - fade in
^ - brush up
v - brush down
Добавлено: 02.05.2012
Другие материалы по этой песне:

Страница создана 02.05.2012
http://primanota.ru/johann-sebastian-bach/bwv-1080-contrapunctus-ii-chords.htm
Привет, Гость.
Предлагаем пройти революционный курс по гитаре.
Подарок от PrimaNota.Ru, забирай!