PrimaNota.ru - самый крупный в мире бесплатный архив песенных текстов, аккордов, табулатур и нот


Бах Иоганн Себастьян - Bwv 1080 - Contrapunctus I - таба, видео

Регистрация Запомнить меня
Войти через:  Facebook Google Twitter Vk Yandex Mail.ru

Бах Иоганн Себастьян - Bwv 1080 - Contrapunctus I - таба, видео

Печатать
Просмотров: 140
Composer: Johann Sebastian Bach
The Art Of The Fugue - BWV 1080 - Contrapunctus I

         

                                          
Violin 1



     H        H           H        H           H        Q    Q     
E||-----------5--------|--------------------|---------------------|
B||--3-----------------|--6-----------------|----------------5----|
G||--------------------|-----------7--------|--6--------7---------|
D||--------------------|--------------------|---------------------|
A||--------------------|--------------------|---------------------|
E||--------------------|--------------------|---------------------|


  H        E  E  E  E     Q    Q    Q    Q       Q    E  E  E  E  Q     
--------------3--1--0--|-------0----1----3----|--5----------------1----|
--6--------L-----------|--3-------------------|----------0--1----------|
-----------------------|----------------------|-------2--------2-------|
-----------------------|----------------------|------------------------|
-----------------------|----------------------|------------------------|
-----------------------|----------------------|------------------------|


  E  E  Q.     E  E  E     Q    Q    H           Q    Q    H         
--L-----0------1--0-----|--0----2----3--------|--L----1----0--------|
-----0---------------3--|---------------------|---------------------|
------------------------|---------------------|---------------------|
------------------------|---------------------|---------------------|
------------------------|---------------------|---------------------|
------------------------|---------------------|---------------------|


  Q.     E  Q.     E     Q.     E  E  E  E  E     Q    H        Q     
---------0--1---------|--3------3--1--0--------|-------3-------------|
--3----------------3--|------------------3--2--|--3-------------1----|
----------------------|------------------------|---------------------|
----------------------|------------------------|---------------------|
----------------------|------------------------|---------------------|
----------------------|------------------------|---------------------|


  Q.     E  Q.     E     H.           E  E     E  E  E  E  Q    Q     
--1------0--1---------|--0------------------|-----1--0---------------|
----------------------|---------------3--1--|--3--------3--1---------|
-------------------1--|---------------------|------------------------|
----------------------|---------------------|------------------------|
----------------------|---------------------|------------------------|
----------------------|---------------------|------------------------|


  W                   W                   W                   W                 
-------------------|-------------------|-------------------|-------------------|
-------------------|-------------------|-------------------|-------------------|
-------------------|-------------------|-------------------|-------------------|
-------------------|-------------------|-------------------|-------------------|
-------------------|-------------------|-------------------|-------------------|
-------------------|-------------------|-------------------|-------------------|


  W                   W                   W                 
-------------------|-------------------|-------------------|
-------------------|-------------------|-------------------|
-------------------|-------------------|-------------------|
-------------------|-------------------|-------------------|
-------------------|-------------------|-------------------|
-------------------|-------------------|-------------------|


  H        H           H        H           H        Q    Q     
-----------5--------|--------------------|---------------------|
--3-----------------|--6-----------------|----------------5----|
--------------------|-----------7--------|--6--------7---------|
--------------------|--------------------|---------------------|
--------------------|--------------------|---------------------|
--------------------|--------------------|---------------------|


  H        E  E  E  E     Q    Q.     E  Q       Q    Q.     E  Q     
--------------3--1--0--|-------3------0--1----|--0----5------2--3----|
--6--------L-----------|--3-------------------|----------------------|
-----------------------|----------------------|----------------------|
-----------------------|----------------------|----------------------|
-----------------------|----------------------|----------------------|
-----------------------|----------------------|----------------------|


  Q.      E  H            Q    E  E  Q    Q       Q    Q    Q    Q     
--2------10-----------|------------------------|----------------------|
-------------9--------|--10--------------------|-------6----5----3----|
----------------------|--------------5---------|--7-------------------|
----------------------|-----------7-------7----|----------------------|
----------------------|------------------------|----------------------|
----------------------|------------------------|----------------------|


  Q    H        Q       Q    Q.     E  E  E     W                 
-------5-------------|--0----5------3--1--0--|-------------------|
----------------3----|-----------------------|--3----------------|
--5------------------|-----------------------|-------------------|
---------------------|-----------------------|-------------------|
---------------------|-----------------------|-------------------|
---------------------|-----------------------|-------------------|


  E  E  Q.     E  Q       E  E  Q    H           E  E  Q    H         
--------3------3-------|----------------------|----------------------|
--L--3------------1----|--L-------------------|-------------1--------|
-----------------------|-----2--3----2--------|--L-----0-------------|
-----------------------|----------------------|-----3----------------|
-----------------------|----------------------|----------------------|
-----------------------|----------------------|----------------------|


  E  E  Q    H           E  E  Q    H           E  E  Q    H         
-------------0--------|--L----------3--------|--L--5--6----5--------|
--L-----0-------------|-----2--3-------------|----------------------|
-----2----------------|----------------------|----------------------|
----------------------|----------------------|----------------------|
----------------------|----------------------|----------------------|
----------------------|----------------------|----------------------|


  H        E  E  Q       Q.     E  Q    Q       Q    E  E  Q.     E   
--L--------L-----3----|--5------6--5----3----|--L----1-----5------3--|
--------------6-------|----------------------|----------3------------|
----------------------|----------------------|-----------------------|
----------------------|----------------------|-----------------------|
----------------------|----------------------|-----------------------|
----------------------|----------------------|-----------------------|


  E  E  Q.     E  Q       E  E  Q.     E  Q       E  E  Q.     E  Q     
--2-----3------0--1----|--L-----3------0--5----|--L-----6------3--5----|
-----3-----------------|-----3-----------------|-----6-----------------|
-----------------------|-----------------------|-----------------------|
-----------------------|-----------------------|-----------------------|
-----------------------|-----------------------|-----------------------|
-----------------------|-----------------------|-----------------------|


  E  E  H        E  E     H         H           E  E  E  E   E   E   Q     
--L-----3--------1-----|--5--------10--------|--L--9--7--9--10------12----|
-----6--------------3--|---------------------|------------------10--------|
-----------------------|---------------------|----------------------------|
-----------------------|---------------------|----------------------------|
-----------------------|---------------------|----------------------------|
-----------------------|---------------------|----------------------------|


  E   E   Q    E   E   Q       E  E   Q.     E   E  E   
--L------10-----------------|--------------------------|
-----10---------------11----|--L-----10------8---------|
------------------10--------|-----9-------------10--9--|
----------------------------|--------------------------|
----------------------------|--------------------------|
----------------------------|--------------------------|


  E  E   E  E  E  E  Q       Q    Q    H           Q.     E  H         
-----5--10--7--------8----|--L----6----5--------|--3------1--0--------|
---------------8----------|---------------------|---------------------|
--7---------------9-------|---------------------|---------------------|
--------------------------|---------------------|---------------------|
--------------------------|---------------------|---------------------|
--------------------------|---------------------|---------------------|


  Q    E  E  Q    Q       Q.     E  Q.     E     H.           E  E   
--L---------------3----|--L------1--0------0--|--5------------3--6--|
-------3--2--3---------|----------------------|---------------------|
-----------------------|----------------------|---------------------|
-----------------------|----------------------|---------------------|
-----------------------|----------------------|---------------------|
-----------------------|----------------------|---------------------|


  H        E  E  E  E     H.           Q       Q    H        Q     
--5--------L--3--1--0--|---------------0----|---------------------|
-----------------------|--3-----------------|----------------4----|
-----------------------|--------------------|--2------------------|
-----------------------|--------------------|---------------------|
-----------------------|--------------------|---------------------|
-----------------------|--------------------|---------------------|


  H        Q    Q       E  E  Q    Q    Q       E  E   E   E   Q     E  E   
----------------2----|--3--2--3---------6----|--L--5--13--10--------12--9--|
--3------------------|-----------------------|----------------12-----------|
---------------------|-----------------------|-----------------------------|
---------------------|-----------------------|-----------------------------|
---------------------|-----------------------|-----------------------------|
---------------------|-----------------------|-----------------------------|


   Q     E   E   Q.      E      Q.      E  Q.     E     E  E  Q.     E  Q     
--------10------------------|------------------------|---------------0-------|
--10--------10--11----------|--10-----------------8--|--7-----8---------6----|
------------------------12--|----------10--9---------|-----7-----------------|
----------------------------|------------------------|-----------------------|
----------------------------|------------------------|-----------------------|
----------------------------|------------------------|-----------------------|


  E   E  H        E  E     E  E  Q    Q.     E     Q    H        E  E   
-----10--8--------L--8--|--6--5--4----5---------|--5----3--------L--8--|
--L---------------------|--------------------5--|----------------------|
------------------------|-----------------------|----------------------|
------------------------|-----------------------|----------------------|
------------------------|-----------------------|----------------------|
------------------------|-----------------------|----------------------|


  Q    H        Q       H        Q    Q       H        H         
--5----3-------------|-----------5---------|-----------7--------|
---------------------|---------------------|--------------------|
---------------------|---------------------|--------------------|
---------------------|---------------------|--------------------|
---------------------|---------------------|--------------------|
---------------------|---------------------|--------------------|


  H.           E  E     E  E  Q.     E  Q       E  E  E  E  H         
--5------------L--3--|--2--3--5------3--8----|--L--------6-----------|
---------------------|-----------------------|-----7--8--------------|
---------------------|-----------------------|--------------8--------|
---------------------|-----------------------|-----------------------|
---------------------|-----------------------|-----------------------|
---------------------|-----------------------|-----------------------|


  Q    Q    Q    Q       Q    Q.     E  E  E     E  E  E  E  H          
----------------------|--------------6--5--3--|--L--2--0--3--2--------||
----------------------|-----------------------|-----------------------||
--7--------------5----|--7--------------------|-----------------------||
-------7----8---------|-------5---------------|-----------------------||
----------------------|-----------------------|-----------------------||
----------------------|-----------------------|-----------------------||











Violin 2



     W                   W                   W                 
E||-------------------|-------------------|-------------------|
B||-------------------|-------------------|-------------------|
G||-------------------|-------------------|-------------------|
D||-------------------|-------------------|-------------------|
A||-------------------|-------------------|-------------------|
E||-------------------|-------------------|-------------------|


  W                    H         H           H         H         
-------------------|------------10--------|--8------------------|
-------------------|--10------------------|-----------10--------|
-------------------|----------------------|---------------------|
-------------------|----------------------|---------------------|
-------------------|----------------------|---------------------|
-------------------|----------------------|---------------------|


  H         Q    Q       H        E   E  E  E     E  E   H        Q     
-----------------7----|--8--------L--10--8--6--|--5-----10--------9----|
--9--------10---------|------------------------|-----3-----------------|
----------------------|------------------------|-----------------------|
----------------------|------------------------|-----------------------|
----------------------|------------------------|-----------------------|
----------------------|------------------------|-----------------------|


   E   E  Q.      E   Q       E  E   H.               E  Q    E  H         
--10------8----------------|----------------------|------8----7--8--------|
------10---------10--11----|--L-----10------------|--10-------------------|
---------------------------|-----9----------------|-----------------------|
---------------------------|----------------------|-----------------------|
---------------------------|----------------------|-----------------------|
---------------------------|----------------------|-----------------------|


  E  E  Q.     E  Q       Q    E  E  H           H        Q     Q     
--L-----8------5--7----|--L----5--4--5--------|--7--------8----10----|
-----------------------|----------------------|----------------------|
-----7-----------------|----------------------|----------------------|
-----------------------|----------------------|----------------------|
-----------------------|----------------------|----------------------|
-----------------------|----------------------|----------------------|


  E  E  Q.     E  E  E     E  E  E  E  H           E  E  Q     H         
-----6--5------6--5--3--|--L--0--1-----6--------|--L--3--5----10--------|
--8---------------------|-----------3-----------|-----------------------|
------------------------|-----------------------|-----------------------|
------------------------|-----------------------|-----------------------|
------------------------|-----------------------|-----------------------|
------------------------|-----------------------|-----------------------|


  E  E  Q     H           E   E   Q     Q     Q       E  E  Q    Q    Q     
--L--7--8----13--------|--L--10--12----------10----|--L--7--8---------6----|
-----------------------|---------------10----------|-------------6---------|
-----------------------|---------------------------|-----------------------|
-----------------------|---------------------------|-----------------------|
-----------------------|---------------------------|-----------------------|
-----------------------|---------------------------|-----------------------|


  H        Q    Q       E  E  E   E  H           E  E  H        Q     
--5-------------3----|--L--0--1--10--0--------|--L-----5--------3----|
-----------3---------|------------------------|----------------------|
---------------------|------------------------|-----7----------------|
---------------------|------------------------|----------------------|
---------------------|------------------------|----------------------|
---------------------|------------------------|----------------------|


  H        H           W                   W                 
--5-----------------|-------------------|-------------------|
--------------------|-------------------|-------------------|
--------------------|-------------------|-------------------|
--------------------|-------------------|-------------------|
--------------------|-------------------|-------------------|
--------------------|-------------------|-------------------|


  W                   H         H           H         H         
-------------------|--5--------12--------|--8------------------|
-------------------|---------------------|-----------10--------|
-------------------|---------------------|---------------------|
-------------------|---------------------|---------------------|
-------------------|---------------------|---------------------|
-------------------|---------------------|---------------------|


  H         Q    Q       H        E   E  E  E     Q    H        Q     
-----------------7----|--8--------L--10--8--6--|--5-------------5----|
--9--------10---------|------------------------|---------------------|
----------------------|------------------------|---------------------|
----------------------|------------------------|---------------------|
----------------------|------------------------|---------------------|
----------------------|------------------------|---------------------|


  E  E  E  E  E  E  E  E     Q.     E  Q.     E     Q.     E  Q.     E   
--L--8--6--5--6--5--3--2--|--3------6--0------2--|--3------0---------5--|
--------------------------|----------------------|------------2---------|
--------------------------|----------------------|----------------------|
--------------------------|----------------------|----------------------|
--------------------------|----------------------|----------------------|
--------------------------|----------------------|----------------------|


  Q.     E  Q.     E     Q.     E  Q.      E      Q.     E  Q.      E   
---------1--0------8--|---------5--3------12--|----------8--7------15--|
--3-------------------|--6--------------------|--10--------------------|
----------------------|-----------------------|------------------------|
----------------------|-----------------------|------------------------|
----------------------|-----------------------|------------------------|
----------------------|-----------------------|------------------------|


   H         Q     Q       E   E   H        E   E   
------------------12----|--L-------------------12--|
--14--------15----------|-----14--15--------L------|
------------------------|--------------------------|
------------------------|--------------------------|
------------------------|--------------------------|
------------------------|--------------------------|


   E   E   Q.      E   E   E     E   E   Q.     E  Q       Q    Q    Q    Q     
--13--12--15------13--12--10--|--9------10------7--8----|--8----6----5---------|
------------------------------|-----10------------------|----------------------|
------------------------------|-------------------------|----------------------|
------------------------------|-------------------------|----------------------|
------------------------------|-------------------------|----------------------|
------------------------------|-------------------------|----------------------|


  W                   W                   W                   W                 
-------------------|-------------------|-------------------|-------------------|
-------------------|-------------------|-------------------|-------------------|
-------------------|-------------------|-------------------|-------------------|
-------------------|-------------------|-------------------|-------------------|
-------------------|-------------------|-------------------|-------------------|
-------------------|-------------------|-------------------|-------------------|


   H         H            H         H            H         Q     Q     
--12--------17--------|--13------------------|------------------12----|
----------------------|------------15--------|--14--------15----------|
----------------------|----------------------|------------------------|
----------------------|----------------------|------------------------|
----------------------|----------------------|------------------------|
----------------------|----------------------|------------------------|


   H        E   E   E   E      Q.      E  Q     E   E   
--13--------L--15--13--12--|--10------12--9----10--13--|
---------------------------|---------------------------|
---------------------------|---------------------------|
---------------------------|---------------------------|
---------------------------|---------------------------|
---------------------------|---------------------------|


   H        E   E   E  E      H         H            H.            Q     
--------------------------|----------------------|----------------12----|
--11--------L--11--10--8--|------------11--------|--10------------------|
--------------------------|--10------------------|----------------------|
--------------------------|----------------------|----------------------|
--------------------------|----------------------|----------------------|
--------------------------|----------------------|----------------------|


  E  E   E   E   E   E   Q       E   E   E   E   E   E   E  E   
--L--9--10--12--13--10--15----|--L--12--17--15--13--12--10--9--|
------------------------------|--------------------------------|
------------------------------|--------------------------------|
------------------------------|--------------------------------|
------------------------------|--------------------------------|
------------------------------|--------------------------------|


   E  E  E  E  H           E  E  E  E  H           E  E  E  E  H         
--10--8--6--5--3--------|--L--0--1-----5--------|--L--2--3--6--8--------|
------------------------|-----------3-----------|-----------------------|
------------------------|-----------------------|-----------------------|
------------------------|-----------------------|-----------------------|
------------------------|-----------------------|-----------------------|
------------------------|-----------------------|-----------------------|


  E  E  E   E   Q     Q       Q     Q.      E   Q     
--L--5--6--10--11----10----|--9----17----------15----|
---------------------------|---------------15--------|
---------------------------|-------------------------|
---------------------------|-------------------------|
---------------------------|-------------------------|
---------------------------|-------------------------|


  E   E   Q.      E   Q       E   E   Q.      E   Q     
--L------13----------12----|--L------------------------|
-----14----------15--------|-----14--15----------------|
---------------------------|-----------------16--17----|
---------------------------|---------------------------|
---------------------------|---------------------------|
---------------------------|---------------------------|


  Q     Q     Q.      E      E   E   E   E   E   E   Q     
-------------------------|------13--12--15--13--12--10----|
-------------------------|--15----------------------------|
--L----15----14------14--|--------------------------------|
-------------------------|--------------------------------|
-------------------------|--------------------------------|
-------------------------|--------------------------------|


  E   Q     E   E   E   Q       E   E  E  E  Q.      E   
--L--13----12--13--10--12----|--L--10--8--7--8------17--|
-----------------------------|--------------------------|
-----------------------------|--------------------------|
-----------------------------|--------------------------|
-----------------------------|--------------------------|
-----------------------------|--------------------------|


   E   E   E   E   Q    Q       H         Q    Q       H         H         
--15--14--15--18-------------|----------------------|---------------------|
-----------------------------|----------------------|---------------------|
------------------18---------|-----------19---------|-----------19--------|
-----------------------------|----------------------|---------------------|
-----------------------------|----------------------|---------------------|
-----------------------------|----------------------|---------------------|


  H        E   E   Q        Q.      E   Q.      E      H        E   E   E  E   
------------------------|--------------------------|-----------------------8--|
------------------------|--15----------------------|-------------------10-----|
--L--------L--16--18----|----------17--15------14--|---------------12---------|
------------------------|--------------------------|--12----------------------|
------------------------|--------------------------|--------------------------|
------------------------|--------------------------|--------------------------|


  E  E  E   Q     E   E   E     E   S  S  E   E   H         
--L--6--8--11----10--14--17--|--L--15-17-18----------------|
-----------------------------|-----------------------------|
-----------------------------|---------------18--19--------|
-----------------------------|-----------------------------|
-----------------------------|-----------------------------|
-----------------------------|-----------------------------|


  W                  
-------------------||
-------------------||
--L----------------||
-------------------||
-------------------||
-------------------||











Viola



     W                   W                   W                 
E||-------------------|-------------------|-------------------|
B||-------------------|-------------------|-------------------|
G||-------------------|-------------------|-------------------|
D||-------------------|-------------------|-------------------|
A||-------------------|-------------------|-------------------|
E||-------------------|-------------------|-------------------|


  W                   W                   W                   W                 
-------------------|-------------------|-------------------|-------------------|
-------------------|-------------------|-------------------|-------------------|
-------------------|-------------------|-------------------|-------------------|
-------------------|-------------------|-------------------|-------------------|
-------------------|-------------------|-------------------|-------------------|
-------------------|-------------------|-------------------|-------------------|


  W                   W                   W                   W                 
-------------------|-------------------|-------------------|-------------------|
-------------------|-------------------|-------------------|-------------------|
-------------------|-------------------|-------------------|-------------------|
-------------------|-------------------|-------------------|-------------------|
-------------------|-------------------|-------------------|-------------------|
-------------------|-------------------|-------------------|-------------------|


  W                   H        H           H        H         
-------------------|--------------------|--------------------|
-------------------|-----------3--------|--1-----------------|
-------------------|--2-----------------|-----------2--------|
-------------------|--------------------|--------------------|
-------------------|--------------------|--------------------|
-------------------|--------------------|--------------------|


  H        Q    Q       H        E  E  E  E     H        E  E  Q     
---------------------|-----------------------|----------------------|
----------------0----|--1--------L--3--1-----|----------------------|
--1--------2---------|--------------------3--|--2--------L-----0----|
---------------------|-----------------------|--------------3-------|
---------------------|-----------------------|----------------------|
---------------------|-----------------------|----------------------|


  H        E  E  Q       H        E  E  Q       H        E  E  Q     
----------------------|--0--------L----------|--3--------L--0--1----|
--1--------L-----0----|--------------2--3----|----------------------|
--------------2-------|----------------------|----------------------|
----------------------|----------------------|----------------------|
----------------------|----------------------|----------------------|
----------------------|----------------------|----------------------|


  Q.     E  Q.     E     Q    E  E  Q.     E     Q    H.            
--0------5---------0--|-----------------------|--------------------|
------------3---------|--2----3-----0------2--|--3-----------------|
----------------------|----------2------------|-------2------------|
----------------------|-----------------------|--------------------|
----------------------|-----------------------|--------------------|
----------------------|-----------------------|--------------------|


  H        H           E  E  Q.     E  E  E     Q    Q    H         
--------------------|------------------------|---------------------|
--------------------|------------------------|-------0----1--------|
--L--------3--------|--------2------3--2--0--|--2------------------|
--------------------|-----2------------------|---------------------|
--------------------|------------------------|---------------------|
--------------------|------------------------|---------------------|


  E  E  Q    Q    Q       E  E  Q    Q    Q       E  E  Q.     E  E  E   
-----------------------|------------------0----|--L---------------------|
--L---------------3----|--L--0--1----0---------|--------3------3--1--0--|
-----2--3----2---------|-----------------------|-----2------------------|
-----------------------|-----------------------|------------------------|
-----------------------|-----------------------|------------------------|
-----------------------|-----------------------|------------------------|


  E  E  Q.     E  E  E     H        Q    Q       E  E  E  E  Q    Q     
--------0------0--------|---------------------|------------------------|
--1--3------------3--1--|--0--------1---------|------------------------|
------------------------|----------------1----|--2--0-------------0----|
------------------------|---------------------|--------4--2--4---------|
------------------------|---------------------|------------------------|
------------------------|---------------------|------------------------|


  E  E  E  E  E  E  E  E     Q    H.              W                 
--------------------------|--------------------|-------------------|
--------------------------|--------------------|-------------------|
--L--0--------------------|--------------------|-------------------|
--------3--2--3--2--0-----|--0-----------------|-------------------|
-----------------------4--|--------------------|-------------------|
--------------------------|--------------------|-------------------|


  W                   W                   W                   W                 
-------------------|-------------------|-------------------|-------------------|
-------------------|-------------------|-------------------|-------------------|
-------------------|-------------------|-------------------|-------------------|
-------------------|-------------------|-------------------|-------------------|
-------------------|-------------------|-------------------|-------------------|
-------------------|-------------------|-------------------|-------------------|


  H        H           H        H           H        Q    Q     
--------------------|--------------------|---------------------|
--------------------|--------------------|---------------------|
-----------2--------|--------------------|---------------------|
--2-----------------|--3--------0--------|-----------0----2----|
--------------------|--------------------|--4------------------|
--------------------|--------------------|---------------------|


  H        E  E  E  E     H.           E  E     Q.     E  Q.     E   
-----------------------|---------------------|----------------------|
-----------------------|---------------------|------------1---------|
--------------0--------|---------------2-----|--3------0---------2--|
--3--------L-----3--2--|--0---------------3--|----------------------|
-----------------------|---------------------|----------------------|
-----------------------|---------------------|----------------------|


  Q    Q    Q    Q       Q    Q    H           Q    Q.     E  E  E   
----------------------|---------------------|-----------------------|
--3---------1---------|---------------------|-----------------------|
-------0--------------|--3---------2--------|-------2------1-----1--|
-----------------3----|-------2-------------|--2--------------4-----|
----------------------|---------------------|-----------------------|
----------------------|---------------------|-----------------------|


  Q.     E  E  E  E  E     Q    E  E  Q    E  E     Q.     E  Q    Q     
------------------------|------------------------|---------1------------|
------------------------|------------------------|------------0----2----|
--2------0--------------|-------------3----0-----|--2-------------------|
------------3--2--0-----|--0----3--0----------2--|----------------------|
---------------------4--|------------------------|----------------------|
------------------------|------------------------|----------------------|


  Q    E  E  Q    E  E     E  E  Q.     E  Q       E  E  E  E  H         
------------------------|--------3------0--1----|--L--1--0--------------|
--3----0-----1----------|-----3-----------------|-----------3--2--------|
----------0-------2-----|--3--------------------|-----------------------|
---------------------3--|-----------------------|-----------------------|
------------------------|-----------------------|-----------------------|
------------------------|-----------------------|-----------------------|


  E  E  E  E  E  E  E  E     E  E  Q.     E  Q       E  E  E  E  Q    E  E   
--------------------------|-----------------------|-----0-------------------|
--3--1-----------------1--|--3-----3------0--2----|--L--------2--3----------|
--------3--2--0--2--3-----|-----2-----------------|--------2----------3--0--|
--------------------------|-----------------------|-------------------------|
--------------------------|-----------------------|-------------------------|
--------------------------|-----------------------|-------------------------|


  H        Q    Q       H        Q    Q       Q    H        Q     
---------------------|---------------------|---------------------|
---------------------|-----------0----2----|--3------------------|
----------------0----|--2------------------|---------------------|
--2--------3---------|---------------------|----------------4----|
---------------------|---------------------|---------------------|
---------------------|---------------------|---------------------|


  E  E  Q    Q    Q       H        E  Q    E     H        H         
-----------------------|----------------------|--------------------|
------------------1----|--3-------------------|--------------------|
--0--2--3--------------|--------------0-------|--------------------|
-----------------------|-------------------3--|--2-----------------|
-----------------------|----------------------|--------------------|
-----------------------|----------------------|--------------------|


  Q    E  E  Q.     E     Q.     E  H           Q    H        E  E   
-----------------------|---------------------|----------------------|
-----------------------|---------------------|-------3--------------|
-------------0---------|------------2--------|----------------2-----|
-------3--0------------|--3------0-----------|--0----------------3--|
--------------------4--|---------------------|----------------------|
-----------------------|---------------------|----------------------|


  H        E  E  Q       H        E  E  Q       H        E  E  Q     
----------------------|----------------------|--1--------L----------|
----------------------|--3--------L--0--1----|--------------3--4----|
--3--------L--1--2----|----------------------|----------------------|
----------------------|----------------------|----------------------|
----------------------|----------------------|----------------------|
----------------------|----------------------|----------------------|


  H        Q    Q       H        Q    Q       H        H         
-----------0---------|-----------1---------|-----------1--------|
--3------------------|---------------------|--------------------|
---------------------|---------------------|--------------------|
---------------------|---------------------|--------------------|
---------------------|---------------------|--------------------|
---------------------|---------------------|--------------------|


  Q    E  E  Q    Q       H        H           H        H         
--L----0-----0---------|--------------------|--------------------|
----------3------------|-----------3--------|--------------------|
-----------------------|--2-----------------|--3--------0--------|
-----------------------|--------------------|--------------------|
-----------------------|--------------------|--------------------|
-----------------------|--------------------|--------------------|


  H        Q    Q       H        E  E  E  E     Q    H.             
---------------------|-----------------------|--------------------||
---------------------|--------------3--1-----|--------------------||
-----------0----2----|--3--------L--------3--|--2----2------------||
--4------------------|-----------------------|--------------------||
---------------------|-----------------------|--------------------||
---------------------|-----------------------|--------------------||












Cello



     W                   W                   W                 
E||-------------------|-------------------|-------------------|
B||-------------------|-------------------|-------------------|
G||-------------------|-------------------|-------------------|
D||-------------------|-------------------|-------------------|
A||-------------------|-------------------|-------------------|
E||-------------------|-------------------|-------------------|


  W                   W                   W                   W                 
-------------------|-------------------|-------------------|-------------------|
-------------------|-------------------|-------------------|-------------------|
-------------------|-------------------|-------------------|-------------------|
-------------------|-------------------|-------------------|-------------------|
-------------------|-------------------|-------------------|-------------------|
-------------------|-------------------|-------------------|-------------------|


  W                   H        H           H        H         
-------------------|--------------------|--------------------|
-------------------|--------------------|--------------------|
-------------------|-----------2--------|--------------------|
-------------------|--0-----------------|--3--------0--------|
-------------------|--------------------|--------------------|
-------------------|--------------------|--------------------|


  H        Q    Q       H        E  E  E  E     H        H         
---------------------|-----------------------|--------------------|
---------------------|-----------------------|--------------------|
---------------------|--------------0--------|--------------------|
-----------0----2----|--3--------L-----3--2--|--0-----------------|
--4------------------|-----------------------|--------------------|
---------------------|-----------------------|--------------------|


  Q    E  E  E  E  Q       E  E  Q.     E  E  E     E  E  E  E  H         
------------------------|------------------------|-----------------------|
------------------------|------------------------|-----------------------|
------------------------|------------------------|-----0-----2--0--------|
-------------------3----|--L-----2------3--2--0--|--2-----4--------------|
-------0--2--3--0-------|-----2------------------|-----------------------|
------------------------|------------------------|-----------------------|


  H.           E  E     Q    E  E  Q    E  E     Q    E  E  Q    E  E   
---------------------|------------------------|------------------------|
---------------------|------------------------|------------------------|
---------------------|------------------0-----|--1----2--1--2----3--2--|
--0------------2--0--|--2----3--2--4-------4--|------------------------|
---------------------|------------------------|------------------------|
---------------------|------------------------|------------------------|


  Q    E  E  Q    E  E     H        E  E  Q       E  E  Q.     E  Q     
------------------------|----------------------|-----------------------|
--0----1--0--2----3-----|----------------------|-----------------------|
---------------------1--|--2--------L-----0----|--L--------------------|
------------------------|--------------3-------|-----2--3------0--2----|
------------------------|----------------------|-----------------------|
------------------------|----------------------|-----------------------|


  H        E  E  Q       Q.     E  H           Q.     E  E  E  E  E   
----------------------|---------------------|------------------------|
----------------------|---------------------|------------------------|
----------------------|---------------------|------------------------|
--0--------L----------|--0------------------|------------------------|
--------------2--4----|---------3--1--------|--0---------------------|
----------------------|---------------------|---------3--1--3--1--0--|


  E  E  E  E  Q.     E     Q.     E  Q.     E     Q.     E  H         
------------------------|----------------------|---------------------|
------------------------|----------------------|---------------------|
------------------------|----------------------|--2------------------|
------------------------|------------0------3--|---------------------|
--------------0---------|--1-------------------|---------0-----------|
-----1--0------------1--|---------3------------|------------0--------|


  H        H           H        H           E  E  E  E  E  E  E  E   
--------------------|--------------------|--------------------------|
--------------------|--------------------|--------------------------|
--------------------|--2-----------------|--------------------------|
-----------2--------|-----------3--------|--L--3--2--0-----0--------|
--------------------|--------------------|--------------3-----3--2--|
--------------------|--------------------|--------------------------|


  H        H           H        H           H        Q    Q     
--------------------|--------------------|---------------------|
--------------------|--------------------|---------------------|
--------------------|--------------------|---------------------|
-----------0--------|--------------------|---------------------|
--0-----------------|--4--------0--------|----------------0----|
--------------------|--------------------|--2--------3---------|


  H        E  E  E  E     H        E  E  Q       H        E  E  Q     
-----------------------|----------------------|----------------------|
-----------------------|----------------------|----------------------|
-----------------------|----------------------|----------------------|
-----------------------|----------------------|----------------------|
--1--------L--3--1--0--|----------------------|--1--------L-----0----|
-----------------------|--3--------L--0--1----|--------------3-------|


  H        E  E  Q       H        E  E  Q       Q.     E  E  E  E  E   
----------------------|----------------------|------------------------|
----------------------|----------------------|------------------------|
----------------------|----------------------|---------0--------------|
--0--------L----------|--3--------L--0--2----|------------3--2--0-----|
--------------2--3----|----------------------|--0------------------4--|
----------------------|----------------------|------------------------|


  Q.     E  H           W                   Q.     E  E  E  Q     
---------------------|-------------------|-----------------------|
---------------------|-------------------|-----------------------|
---------------------|-------------------|-----------------------|
--0------------------|-------------------|-----------------------|
------------1--------|--0----------------|--L------1--0-----0----|
---------1-----------|-------------------|---------------3-------|


  Q.     E  H           Q    H        Q       Q.     E  Q.     E   
---------------------|---------------------|----------------------|
---------------------|---------------------|----------------------|
---------------------|---------------------|----------------------|
------------0--------|--L----2--------3----|--L------0--2---------|
--1------------------|---------------------|-------------------4--|
---------3-----------|---------------------|----------------------|


  Q.     E  E  E  Q       E  E  E  E  H           Q    H.            
-----------------------|-----------------------|--------------------|
-----------------------|-----------------------|--------------------|
-----------------------|-----------------------|--------------------|
--0---------------0----|--L--------------------|--------------------|
---------2--4--0-------|-----3--2--0--2--------|--0-----------------|
-----------------------|-----------------------|--------------------|


  W                   W                   W                   W                 
-------------------|-------------------|-------------------|-------------------|
-------------------|-------------------|-------------------|-------------------|
-------------------|-------------------|-------------------|-------------------|
-------------------|-------------------|-------------------|-------------------|
-------------------|-------------------|-------------------|-------------------|
-------------------|-------------------|-------------------|-------------------|


  W                   W                   H        H         
-------------------|-------------------|--------------------|
-------------------|-------------------|--------------------|
-------------------|-------------------|-----------2--------|
-------------------|-------------------|--0-----------------|
-------------------|-------------------|--------------------|
-------------------|-------------------|--------------------|


  H        H           H        Q    Q       H        E  E  E  E   
--------------------|---------------------|-----------------------|
--------------------|---------------------|-----------------------|
--------------------|---------------------|--------------0--------|
--3--------0--------|-----------0----2----|--3--------L-----3--2--|
--------------------|--4------------------|-----------------------|
--------------------|---------------------|-----------------------|


  H        E  E  E  E     H        E  E  E  E     H.           Q     
-----------------------|-----------------------|--------------------|
-----------------------|-----------------------|--------------------|
-----------------------|-----------------------|--------------------|
--0--------L--1--0-----|-----------------------|--------------------|
--------------------3--|--1--------L--3--1--0--|--------------------|
-----------------------|-----------------------|--3------------3----|


  W                   W                   H.           Q     
-------------------|-------------------|--------------------|
-------------------|-------------------|--------------------|
-------------------|-------------------|--------------------|
-------------------|-------------------|--------------------|
-------------------|-------------------|---------------0----|
--L----------------|--L----------------|--L-----------------|


  Q.     E  H           E  E  Q    H           E  E  Q    H         
---------------------|----------------------|----------------------|
---------------------|----------------------|----------------------|
---------------------|----------------------|-------------2--------|
------------0--------|--L----------3--------|--L--0--2-------------|
--1------------------|-----1--3-------------|----------------------|
---------3-----------|----------------------|----------------------|


  E  E  Q    H           E  E  H        Q       H        Q    Q     
----------------------|----------------------|---------------------|
-------------1--------|--L-------------------|---------------------|
--L-----0-------------|-----2--3-------------|-----------2---------|
-----3----------------|----------------------|---------------------|
----------------------|----------------------|---------------------|
----------------------|----------------------|---------------------|


  H        H           H.           Q       W                 
--------------------|--------------------|-------------------|
--------------------|--------------------|-------------------|
-----------1--------|--2-----------------|-------------------|
--------------------|--------------------|--0----------------|
--------------------|---------------0----|-------------------|
--------------------|--------------------|-------------------|


  W                   W                   W                 
-------------------|-------------------|-------------------|
-------------------|-------------------|-------------------|
-------------------|-------------------|-------------------|
--L----------------|--L----------------|--L----------------|
-------------------|-------------------|-------------------|
-------------------|-------------------|-------------------|


  W                  
-------------------||
-------------------||
-------------------||
--L----------------||
-------------------||
-------------------||




Duration Legend
---------------
W - whole
H - half
Q - quarter
E - 8th
S - 16th
T - 32nd
X - 64th
. - note dotted
|-n-|  - n-tuplets


Tablature Legend
----------------
L - tied note
x - dead note
g - grace note
(n) - ghost note
> - accentuded note
NH - natural harmonic
AH - artificial harmonic
TH - tapped harmonic
SH - semi harmonic
PH - pitch harmonic
h - hammer on
p - pull off
b - bend
br - bendRelease
pb - preBend
pbr - preBendRelease
brb - bendReleaseBend
\n/ - tremolo bar dip
\n - tremolo bar dive
-/n - tremolo bar Release up
/n\ - tremolo bar inverted dip
/n - tremolo bar return
-\n - tremolo bar Release down
S - shift slide
s - legato slide
/ -  slide into from below or out of upwards
\ -  slide into from above or out of downwards
~ - vibrato
W - wide vibrato
tr - trill
TP - tremolo picking
T - tapping
S - slap
P - pop
< - fade in
^ - brush up
v - brush down
Добавлено: 28.02.2012
Другие материалы по этой песне:

Страница создана 28.02.2012
http://primanota.ru/johann-sebastian-bach/bwv-1080-contrapunctus-i-chords.htm
Привет, Гость.
Предлагаем пройти революционный курс по гитаре.
Подарок от PrimaNota.Ru, забирай!