PrimaNota.ru - самый крупный в мире бесплатный архив песенных текстов, аккордов, табулатур и нот


Бах Иоганн Себастьян - Bwv 1056 - Largo - таба, видео

Регистрация Запомнить меня
Войти через:  Facebook Google Twitter Vk Yandex Mail.ru

Бах Иоганн Себастьян - Bwv 1056 - Largo - таба, видео

Печатать
Просмотров: 284
BWV 1056 - Harpsichord Concerto No 5 in F minor, 2 Largo - JS Bach
1st version - by JL Thompson
2nd version - by curzio, changes to 1st version
******************************************************************************

BWV 1056 - Harpsichord Concerto No 5 in F minor, 2 Largo - JS Bach

Title: Arioso
Composer: J.S.Bach / Arr. J.L.Thompson
Copyright: Copyright © J.L.Thompson 2003

   4/4 Largo  M = Mordent / T = Trill

   M                                                T
E|-------------0-------------|---3-0-----------5-2-------|
B|-0-------0--3---------0-1-3|------1-1-3-1-0-1---3-1-0-1|
G|-------0--5-0-2------2-----|-0-------------------------|
D|-------------------4----4--|---2----2----------0----0--|
A|---------------------------|---------------------------|
D|-5-------5----4------4-----|-2----2---------0-----0----|


E|------------3---3-2-0-2-3|--------0-3-2---2-0------|
B|-0-----------------------|-------2-----------3-2-0-|
G|----2-0-0----------------|-2----2-----------------2|
D|----------4---2-------0--|--------------0----------|
A|-------------------------|-4--4-4-4--------------4-|
D|-5--5---5---2---2--------|------------0---0--------|

                                                       M
E|--------------2-0---0-----0----|----0-----0-2-3-2-3-7----------|
B|-----------0-3----2--3-2-3-2---|---2-3---3--------------------3|
G|-0--0-2-0-0-----------------2-0|--2------0-----------6---------|
D|---------4---------------------|-4-0---4------2------7---------|
A|-2--2-----2--2--4---4-----0----|-----------------------------0-|
D|-------------------------------|-0---0-------------------------|


E|---------1----1---------|-------------0-1-4-7---0-1-0|
B|-3--------------3---0---|--------0-1-3-------3-3-----|
G|-----------------------2|-1---1-2-------1------------|
D|---0----------------0---|---2----3-------------------|
A|-------3-2--2-3---------|----------------------------|
D|-0---0------------------|-2---2------6------6--2-----|


E|-------8--0-0-0-8-7-5-4-5-----0|-0-----0-1-0-7---------0-5-7-7--5|
B|-3-1-0-------3-----------------|--2-3-3-----3---3-1-0-1----------|
G|------2--2------0------------0-|---------------------------------|
D|-------------------------------|------3--------3------2--0-------|
A|-0---0-0-----------------------|-----------------------------7---|
D|------------5-----------5------|-3-----------3-----------------2-|


E|-5-------------------5|-------------------------0-1-3-1-0-1-1|
B|--------------3-1-0-1-|-0------0---0-1-3-1-0-1-3-----------0-|
G|---2---0-5---5--------|------0--0-2-----------------------0--|
D|-----------4--------0-|-----------3----------2---------------|
A|-0---0----------------|--------------------------------------|
D|---------4---4--------|-5------5-----2--------------2--------|


E|-1-0-----------------------------|------5-5-------------3-0---2-3|
B|---1---------0-1----------0-----0|---------0-1-3-1-0-0-3---3-1---|
G|--------2------------0-0-2-2-0-2-|-5-4-5------------2------------|
D|----------------4-2-4-4----------|------4------------------2-----|
A|-3---3-------2--0----0---0-------|----------------------2-----3--|
D|-----------------------------5---|-4------4------0---5-----------|


E|---------------------------0|-0-----------------3-0------|
B|-0------------0---0-1-0-3-1-|---------0-1-0-3-3----1-----|
G|--------2-------0--2----0---|--2---2-0-2-------0---------|
D|--------0---4---------------|----4------4-------2------2-|
A|----------------------------|----------------------------|
D|-0--------0---5---5---------|-4----4----------2----2-----|

         T                          M                            T
E|--5-2----------------------------------|---------------------------|
B|-1---3-3-1-0-1-0---1-3-1-0-------------|---------------------1-----|
G|-----------------------0--2-0-0--------|--------0-0---0-2-0-0-2---0|
D|----0------0----------------------3-2-3|-2-4-4--------0----4---4---|
A|---------------------------------------|-3---3----4-4-------3--5---|
D|-0-----0-------5--------------5---5----|-------------------------0-|

                                              M
E|---0----------0-2-3-0-----------|------------------------------0--2-0-0-----|
B|--0-2-3-3--3-3-------0-1-1-0-0-1|------------------0-0-----0-----1---4-0---0|
G|-0-0------------------------2---|-------0-2-2---0-2---2-0-0--------------2--|
D|----------4-------2---------2---|-4---------0--------0---4--1-2-------------|
A|--------------------------------|-----------------------------3--------3-3--|
D|-5------4----2---------2--------|-0----------------0------------------------|


E|-0-2-0-0--------------||
B|--------4-4-2-4-------||
G|-0-2-0-0------4-------||
D|--------4-4-2-4-------||
A|-2------------2-------||
D|----------------------||

******************************************************************************
******************************************************************************

Arioso

tab by curzio@hotmail.com - December 2003

Tuning : D A D G B E - Time Signature: 4/4


 |               |               |               |                
|----------------------------0-----------------------------------|
|0-0-----------------1---3-------0-------------------0---1---3---|
|-2------0---------------0-----------2---------------------------|
|----------------------------------------4---------------4-------|
|----------------------------------------------------------------|
|5---------------5---------------4---------------4---------------|

 |               |               |               |                
|--------3---0-----------------------5---2-----------------------|
|----------------1---------3-1-0-1-----------3---13131-1-0---1---|
|0---------------------------------------------------------------|
|--------2---------------2---------------0---------------0-------|
|----------------------------------------------------------------|
|2---------------2---------------0---------------0---------------|

 |               |               |               |                
|--------------------------------3-------------------2-0-2---3---|
|1---0-----------------------------------------------------------|
|--------2---0---------------------------------------------------|
|------------------------4---------------2---------------0-------|
|----------------------------------------------------------------|
|5-------5-------5---------------2---------------2---------------|

 |               |               |               |                
|------------------------0---3---2-----------------0-------------|
|--------------------2-------------------------------3-2-0-------|
|2-----------------------------------------------------------2---|
|----------------------------------------0-----------------------|
|4-------4-------4-------4-------------------------------4-------|
|--------------------------------0---------------0---------------|

 |               |               |               |                
|----------------------------2---0-----------------------0-------|
|--------------------0---3---------------2---------3-2-3---2-----|
|0---------2-0---0-------------------------------------------2-0-|
|--------------4-------------------------------------------------|
|2-------2-------2-------2-------4---------------4-------0-------|
|----------------------------------------------------------------|

 |               |               |               |                
|------------0-----------------------0-2-3-2-3-7-----------------|
|--------2-------3-------------------------------23232-------3---|
|----2---------------------------0---------------2---------------|
|4-------0---------------4---------------2-----------------------|
|--------------------------------------------------------0-------|
|0---------------0-----------------------------------------------|

 |               |               |               |                
|--------------------------------1-------------------0-----------|
|3-----------------------------------------------------3-1-0-----|
|------------------------------------------------------------2---|
|--------0-----------------------------------------------0-------|
|------------------------3-------2-------2-------3---------------|
|0---------------0-----------------------------------------------|

 |               |               |               |                
|------------------------------------0---1---4---7---------0-1-0-|
|------------------------0---1---3-------------------3-----------|
|1-------------------2-------------------1-----------------------|
|--------2---------------3---------------------------------------|
|----------------------------------------------------------------|
|2---------------2---------------6---------------6-------2-------|

 |               |               |               |                
|----------------8-----------0-----------8----7544---5-------0---|
|3---1---0-----------------------56535---------------------------|
|------------2-----------2---------------0---------------0-------|
|----------------------------------------------------------------|
|0-------0-------0-----------------------------------------------|
|--------------------------------5---------------5---------------|

 |               |               |               |                
|0---------0-10--7-------------------0---5---7---7-----------5---|
|--2-3---------3-----------3-1-0-1-------------------------------|
|----------------------------------------------------------------|
|--------3---------------3-------2-------0-------2---------------|
|----------------------------------------------------------------|
|3---------------3---------------------------------------2-------|

 |               |               |               |                
|5-----------------------------------------------------------5---|
|--------------------------------1-----------------3-1-0-1-------|
|--------2---------------0---------------------------------------|
|----------------------------------------4---------------0-------|
|0---------------0-----------------------------------------------|
|--------------------------------4---------------4---------------|

 |               |               |               |                
|--------------------------------------------0-1-3---1-0-1---1---|
|----------------------------0---1-3-1-0-1-3---------------0-----|
|5---4---------------0---2-------------------------------0-------|
|--------5---------------3---------------2-----------------------|
|----------------------------------------------------------------|
|5---------------5---------------2---------------2---------------|

 |               |               |               |                
|1-------0-------------------------------------------------------|
|--------1-----------------------------------------0-------------|
|------------------24202-4-5-------------0---0---2---2---0-2-4---|
|--------------------------------4-2-4-----4---------------------|
|3---------------3-------2-------0-------0-------0---------------|
|--------------------------------------------------------5-------|

 |               |               |               |                
|--------5-------------------------------3---0-----------2---3---|
|1-0-1-------------0-1-3-1-0-----0---3-----------3---1-----------|
|----------------------------2-----------------------------------|
|--------4---------------------------------------2---------------|
|----------------------------------------2---------------3-------|
|4---------------4-------0-------5-------------------------------|

 |               |               |               |                
|------------------------------------------------------------0---|
|010-----------------------------0-------------------1-0-3-1-----|
|--------2-------------------------------0---------2-----0-------|
|--------0---------------4---------------------------------------|
|----------------------------------------------------------------|
|0---------------0---------------5---------------5---------------|

 |               |               |               |                
|0---------------------------------------3---0-------------------|
|--------------------0---1-0-3---3---------------3---1-----------|
|----2-------------0---2-------------0---------------------------|
|--------4---------------4---------------2---------------2-------|
|----------------------------------------------------------------|
|4---------------4---------------2---------------2---------------|

 |               |               |               |                
|----5---2-------------------------------------------------------|
|1-----------3---35353-1-0---1---1-0-1-3-1-0---------------------|
|----------------------------------------0---2-0-0---------------|
|--------0---------------0-----------------------------353-2-3---|
|----------------------------------------------------------------|
|0---------------0---------------5---------------5-------5-------|

 |               |               |               |                
|----------------------------------------------------------------|
|------------------------------------------1---------------------|
|--------0---0---0---------------0-2-0---0---2-----0---------0---|
|2---4-----4---------------------0-----4---------0---45454-------|
|3-------3-------4-------4---------------3-----------------------|
|--------------------------------------------------------0-------|

 |               |               |               |                
|--------0---------------------------0-2-3-0---------------------|
|----0-----2-3---3-----------3---------------0---1-----0---0-1---|
|0-------0-----------------------------------------------2-------|
|------------------------4---------------2---------------2-------|
|----------------------------------------------------------------|
|5---------------4---------------2---------------2---------------|

 |               |               |               |                
|------------------------------------0-----20--0-----------------|
|----------------0-----------------------1---4---0-------------0-|
|----0-2-24202----------- 42024--------------------------2-------|
|54------0---------------0-----1-2-------------------------------|
|--------------------------------3---------------3-------3-------|
|0---------------0-----------------------------------------------|

 |               |               |               |                
|0-------2---0---0----------------------------------------------||
|--------------------4---4---2---4------------------------------||
|0-------2---0---0----------------------------------------------||
|--------------------4---4---2---1------------------------------||
|2-------------------------------2------------------------------||
|---------------------------------------------------------------||



Добавлено: 17.05.2012
Другие материалы по этой песне:
  • Аккорды и текст

Страница создана 17.05.2012
http://primanota.ru/johann-sebastian-bach/bwv-1056-largo-chords.htm
Привет, Гость.
Предлагаем пройти революционный курс по гитаре.
Подарок от PrimaNota.Ru, забирай!