PrimaNota.ru - самый крупный в мире бесплатный архив песенных текстов, аккордов, табулатур и нот


Бах Иоганн Себастьян - Bwv 1007a Suite No1 In G Major Prelude - таба, видео

Регистрация Запомнить меня
Войти через:  Facebook Google Twitter Vk Yandex Mail.ru

Бах Иоганн Себастьян - Bwv 1007a Suite No1 In G Major Prelude - таба, видео

Печатать
Просмотров: 155
This is a wonderful piece for guitar and i have transcribed it myself.
I have tried to avoid using open strings.
A player can lose a fair amount of control of open
strings.
 
x2 = bar to be played twice - i couldn't be bothered to type the bar
twice!
s = slide (obviously!)
h = hammer on
 
             x2             x2          
x2                                   
e
||-------------|-------------|-------------|-------------|-------------|
B
||-----7---7---|-----8---8---|-----8---8---|-----7---7---|-----7---7---|
G
||---7---7---7-|---7---7---7-|---6---6---6-|---7---7---7-|---7---7---6-|
D
||-------------|-------------|-------------|-------------|-------------|
A
||-5-----------|-5-----------|-5-----------|-5-----------|-5-----------|
E
||-------------|-------------|-------------|-------------|-------------|
                                                                           
e||-----------------------------------|-------------------|----------------------
-|
B||-----7-5-7-------------------------|---5-5-5----5-5-5--|--5-10910-5-5-5-5---5-
-|
G||---4-------7-6-7---7-6-7-----------|--7-7-7-7--7-7-7-7-|-6---------7-6-7---6--
-|
D||-5---------------9---------7-6-----|-6--------6--------|------------------7--7
-|
A||-------------------------9------9--|-------------------|-0--------------------
-|
E||-----------------------------------|-------------------|----------------------
-|
                                                                         
e
||-------------------|---------------------------|-----5-5----------------|
B
||-------------------|--------------------10975--|------5--5--------------|
G
||---767-7----767-7--|--------------7-6--------7-|-6------6----6-9-7-6----|
D
||-------------------|--67-9-7-6--------9--------|--9-7-----7-9-------9-7-|
A
||--9---9-9--9---9-9-|----------9-7--------------|-0----------------------|
E
||-7--------7--------|-7-------------------------|------------------------|
                                                     
e ||-----------------------|--------------------------|
B ||--------------7--5-----|---5-7-8-5------5-7-8-5---|
G ||-8---------8----5-5-8--|--4-------4----4-------6--|
D ||--7-10910-7-7--7---7-7-|-5---------7-5----------9-|
A ||-----------------------|--------------------------|
E ||-7------------5--------|-5-----------2------------|
                                                              
e ||---------------------------|-------------------------------|
B ||--2-2-5-2-5-2--2-2-5-2-5-2-|-------------------------------|
G ||-3-3----------3-3----------|-7-6-7-6-7-9-6-7-6-------------|
D ||---------------------------|----9--------------9-7-5-4-----|
A ||---------------------------|---------------------------7-5-|
E ||-4------------4------------|-7-------------7---------------|
                                                                      
                                   
e ||----------------------|---------------------|----------------------|
B ||----------------------|---------------------|----------------------|
G ||-----2-2-2-----2-2-2--|----5-5-5-----5-5-5--|-----4-4-4-----4-4-4--|
D ||---5--5-5-5--5--5-5-5-|---4-4-4-4---4-4-4-4-|---5--5-5-5---5-5-5-5-|
A ||-4----------4---------|---------------------|----------------------|
E ||----------------------|-5---------5---------|-5----------5---------|
                                                       
e ||---------------------|-------------------------------|
B ||----8-8-8-----8-8-8--|-----7-5-7---------------------|
G ||---6-6-6-6---6-6-6-6-|-----------7-6-----------------|
D ||---------------------|---7----------9-7-5------------|
A ||-5----------5--------|-5------------------9-7-5------|
E ||---------------------|--------------------------9-7-5|
                                                                               
e
||--------------------------|-----------------------|-------------------------|
B
||--------------------------|-----------------------|-----5-9-10--------------|
G
||----6-7-6-7------6-7--6-7-|------6---6------6---6-|----6----------------6-7-|
D
||---9---9----6--9----9-----|---7s9-7-9----7s9-7-9--|---7----------4-5-7-9----|
A
||--7-----------7-----------|--7----------7---------|--7----------7-----------|
E
||-6----------6-------------|-5----------5----------|-5----------5------------|
                                                                
e ||--------------------------5-|-6-5-4-5-5----------------------|
B ||-5-------5-7-8-5----5-7-8---|-----------8-7-8-8-5------------|
G ||--6---6-7-------6-7---------|---------------------6----------|
D ||---7s9-------9--------------|----------------------9-7-------|
A ||----------------------------|-------------------------7-9-10-|
E ||-5--------------------------|-5---------------5--------------|
                                                        
e ||---------------------------|------------5------------|
B ||-----5-7-8-5-7-------------|-------5-7---7-5-6-6-5-5-|
G ||----6---------7------------|------7---7-----------8--|
D ||---7-----------7-5---------|-----7-------------------|
A ||--7----------------9-5-7-9-|--5-9-------0------------|
E ||-5-----------5-------------|-5-----------------------|
e ||--------------------4-5-4-|-5---------------------|
B ||-5-----------------5------|--5---5----------------|
G ||--7-6-7-7---------7-------|---6-6--6--------------|
D ||---------9-6---6-9--------|----9--7--7-6----------|
A ||------------9-7-----------|---------7----9-7-5----|
E ||-5------------------------|-5-----------------9-7-|
                                                         
e ||---------------------------|--------------------------|
B ||---8-7-5-------8-7-5-------|--7-5---------5-----------|
G ||--------7-6-5-------7-6-5--|-----7-6-5-----7-6-5------|
D ||-------------7-----------7-|-5--------7-5--------7-5--|
A ||---------------------------|-------------9------------|
E ||--5----------5-------------|-5-----------5------------|
                                            
e ||----------------------|------------------|
B ||---------5-5-5--5-5-5-|--5-5-5-5-5-5-5-5-|
G ||--7-6-5-6-----6--7----|-6---7---6---7----|
D ||----------7-9------9--|---7---9---7---9--|
A ||-7--------------------|------------------|
E ||-5--------------------|-5----------------|
                                              
e ||---------------0--|-----0-0----0-0--0-0-|--0-0-0----0----0---|
B ||--5-5-5-5-5-5-7-5-|--5-7-8--5-7-8-10-7--|-8-7-8--5-7--5-7--5-|
G ||-6-----6-7-9------|-9-------------------|-------9----9----7--|
D ||---7-9------------|---------------------|--------------------|
A ||------------------|---------------------|--------------------|
E ||-5--------------5-|--------5------------|--------------------|
                                                               
e ||------------------|-------------------|---3-4-5-6-7-8--9---|
B ||--5-5-5-5-5-5-5-5-|--5-------3-4-5-6--|-7-5-6-7-8-9-10-11--|
G ||-9-7-9-6-7-6-7-4--|-6--4-5-6-5-5-6-7--|-8------------------|
D ||------------------|---7--7-8----------|--------------------|
A ||------------------|-------------------|---------------0--0-|
E ||------------------|-------5-5-5-5-5-5-|--5-5-5-5-5-5-------|
                                                     
e ||-10---10-10--10---10-10--|-10---10-10--10---10-10--|
B ||---7-7--7--7---7-7--7--7-|-------------------------|
G ||-------------------------|---9-9--9--9---9-9--9--9-|
D ||----7-----------7--------|----7-----------7--------|
A ||-------------------------|-0-----------0-----------|
E ||-5-----------5-----------|-------------------------|

                              
e ||-9----9-9--9---9-9--|--10--|
B ||---8-8-8-8--8-8-8-8-|--7---|
G ||--------------------|------|
D ||----7--------7------|------|
A ||--------------------|------|
E ||-5---------5--------|--0---|

If desired the ending could be arranged like this:-
              
e ||--7-9h10-10--|
B ||--5-7----7---|
G ||-------------|
D ||---------0---|
A ||----0--------|
E ||--0----------|
feel free to play around with any of this transcription.....
you might come up with something that sounds even more wonderful..
p.s. apologies if anything incorrect but i couldn't be bothered
to go over it again.....got anything to say about it then
please email me.......john

________________________________________________________________________________
     
Добавлено: 29.09.2013
Другие материалы по этой песне:
  • Аккорды и текст

Страница создана 29.09.2013
http://primanota.ru/johann-sebastian-bach/bwv-1007a-suite-no1-in-g-major-prelude-chords.htm
Привет, Гость.
Предлагаем пройти революционный курс по гитаре.
Подарок от PrimaNota.Ru, забирай!