PrimaNota.ru - самый крупный в мире бесплатный архив песенных текстов, аккордов, табулатур и нот


Бах Иоганн Себастьян - Brandenburg Concerto No 5 - таба, видео

Регистрация Запомнить меня
Войти через:  Facebook Google Twitter Vk Yandex Mail.ru

Бах Иоганн Себастьян - Brandenburg Concerto No 5 - таба, видео

Печатать
Просмотров: 185
                           BRANDENBURG CONCERTO
                             NO. 5 IN D MAJOR
                                (excerpts)

(All notes are 16ths unless otherwise noted)

1.
                                                                             E   E   E  E
E|-------------------------------------------------|----------------------------------------|
B|-------------------------------------------------|-------------------------17---------17--|
G|-------------------19-19-18-19-18-16-------------|-------------------19-19----------------|
D|-------16-16-19-19-------------------19-17-16----|-------16-16-19-19-----------19--R------|
A|-17-17----------------------------------------19-|-17-17----------------------------------|
E|-------------------------------------------------|----------------------------------------|


|-------------------------19-19-17-17-------------|--------------------------------------------------|
|-19-19-17-17-20-20-19-19-------------------------|--------------------------------------------------|
|-------------------------------------18-18-19-19-|-------------16-16--------------------------------|
|-------------------------------------------------|-17-17-16-16-------19-19--------------------17-17-|
|-------------------------------------------------|-------------------------16-16-17-17--------------|
|-------------------------------------------------|--------------------------------------17-17-------|


|-------------------------------------------------|-------------------------------------19-19-17-17-|
|-------------------------------------------------|-------------17-17-------20-20-19-19-------------|
|----------------------------------------16-18----|-19-19-18-18-------19-19-------------------------|
|-16----16----------------------16-17-19-------19-|-------------------------------------------------|
|----19----17-19-19-------17-19-------------------|-------------------------------------------------|
|-------------------17-17-------------------------|-------------------------------------------------|

              E                                                                       d.E
|-----------------------------------------------|---------------------------------------------|
|-20-19-17----17-----------------------17-------|---------------------------------------------|
|----------19--------16-17----16-19-18----------|---------------------------------------------|
|-----------------19-------19-------------19-17-|-16-------17-16-19----------17-16------------|
|-----------------------------------------------|----17-19----------17-16----------19-19---17-|
|-----------------------------------------------|-------------------------19------------------|
  E
|--------|
|------R-|
|------E-|
|------S-|
|-17---T-|
|--------|


2.
  + (repeat 8x) +        (8x) +        (8x) +         (8x) +        (8x)
|-------------|-------------|-------------|--------------|-------------|
|-14p11p10h11-|-15p12p10h12-|-17p14p12h14-|-19p15p14ph15-|-20p17p16h17-|
|-------------|-------------|-------------|--------------|-------------|
|-------------|-------------|-------------|--------------|-------------|
|-------------|-------------|-------------|--------------|-------------|
|-------------|-------------|-------------|--------------|-------------|


3.
  |-------6-------| |-------6-------| |-------6-------| |-----6----------|
|------------------------------------------------------------------------|
|-18p15----17p14----16p13----15p12----14p11----13p10----12p9----11p8-----|
|-------16-------15-------14-------13-------12-------11------10------9---|
|------------------------------------------------------------------------|
|------------------------------------------------------------------------|
|------------------------------------------------------------------------|

  |----6-----| |----6----| |-3-----|
|----------------------------------|
|-10p7---9p6---8p5---7p4---6p3-----|
|------8-----7-----6-----5-----4---|
|----------------------------------|
|----------------------------------|
|----------------------------------|


4.

|----17----------17-------------------------------------------------------------------------------|
|-------20-19-17----20-19-17----------------------------------------------------------------------|
|-18-------------------------19-18-16----------------19-18-16----19-18-16-------------------------|
|-------------------------------------19-17-16----16----------19----------19-17-16----------------|
|----------------------------------------------19----------------------------------19-17-16-------|
|-------------------------------------------------------------------------------------------19-17-|


Tablature explanation:
h - hammer-on
p - pull-off
+ - tap
E - eighth note
S -sixteenth note
T - thirty-second note
Добавлено: 25.07.2012
Другие материалы по этой песне:
  • Аккорды и текст

Страница создана 25.07.2012
http://primanota.ru/johann-sebastian-bach/brandenburg-concerto-no-5-chords.htm
Привет, Гость.
Предлагаем пройти революционный курс по гитаре.
Подарок от PrimaNota.Ru, забирай!