PrimaNota.ru - самый крупный в мире бесплатный архив песенных текстов, аккордов, табулатур и нот


Бах Иоганн Себастьян - Ave Maria - текст песни, таба, видео

Регистрация Запомнить меня
Войти через:  Facebook Google Twitter Vk Yandex Mail.ru

Бах Иоганн Себастьян - Ave Maria - текст песни, таба, видео

Печатать
Просмотров: 79
Уроки эстрадного вокала в Санкт-Петербурге
Авторы музыки: Johann Sebastian Bach, Charles-François Gounod
Авторы текста: Noa
(The first 4 bars is repeated in the backing finger picking, so the melody actually comes in at bar 5.)

[Solo]
[Bar 1-4]
e|---------------------------------------------------------------------------|
B|---------------------------------------------------------------------------|
G|9-------10-------10-12------7----9-----------------------------------------|
D|---------------------------------------------------------------------------|
A|---------------------------------------------------------------------------|
E|---------------------------------------------------------------------------|

[Bar 5-8]          
e|---------------------------------------------------------------------------|
B|--10-----------------------------8-----------------------------------------|
G|9-----------------7--9--7------7------------5--7-5-------------------------|
D|--------7--9--10-------------------5--7--9---------------------------------|
A|---------------------------------------------------------------------------|
E|---------------------------------------------------------------------------|

[Bar 9-12]
e|---------------------------------------------------------------------------|
B|13----------5--7--5-----------------------5----5--6--8---------------------|
G|------5--7-----------7----2--4------4--------------------------------------|
D|------------------------------------5--------------------------------------|
A|---------------------------------------------------------------------------|
E|---------------------------------------------------------------------------|

[Bar 13-16]
e|---------------------------------------------------------------------------|
B|10-------------------------------------------------------------------------|
G|----------7----7--9--10--12--0------0-5----5--7--9-------------------------|
D|---7-7---------------------------------------------------------------------|
A|---------------------------------------------------------------------------|
E|---------------------------------------------------------------------------|

[Bar 17-20]
e|---------------------------------------------------------------------------|
B|---------------10--12--10--------------------------------------------------|
G|10-----10--12--------------12-----7--9-----9--12-----9---------------------|
D|---------------------------------------------------------------------------|
A|---------------------------------------------------------------------------|
E|---------------------------------------------------------------------------|

[Bar 21-24]
e|---------------------------------------------------------------------------|
B|----------------------------13------13-13----------------------------------|
G|9--14-------14-14-------14----------------7--------------------------------|
D|-------7-----------5-----------8-------------------------------------------|
A|---------------------------------------------------------------------------|
E|---------------------------------------------------------------------------|

[Bar 25-28]
e|----------------------------------10---------------------------------------|
B|-----------------------6--6--5--------12-----------------12--13------------|
G|67--7--5--4--8--5--------------7----------12---14----14--------------------|
D|------------------5--------------------------------------------------------|
A|---------------------------------------------------------------------------|
E|---------------------------------------------------------------------------|

[Bar 29-32]
e|12-------------------------------------------------------------------------|
B|----13-------------------10--12--10--8--15--12--8--6--3--0-----------------|
G|--------12--------------------------------------------------0-5---7--------|
D|------------14--12---------------------------------------------------------|
A|---------------------------------------------------------------------------|
E|---------------------------------------------------------------------------|

[Bar 33-35]
e|---------------------------------------------------------------------------|
B|---------------------------------------------------------------------------|
G|9/10--12----10-9/10\9--7-----9--7--5--7--5---------------------------------|
D|---------------------------------------------------------------------------|
A|---------------------------------------------------------------------------|
E|---------------------------------------------------------------------------|


************************************

| /  Slide up
| \  Slide down

************************************
Добавлено: 21.05.2017
Другие материалы по этой песне:

Страница создана 19.03.2012
http://primanota.ru/johann-sebastian-bach/ave-maria-chords.htm
Привет, Гость.
Предлагаем пройти революционный курс по гитаре.
Подарок от PrimaNota.Ru, забирай!