PrimaNota.ru - самый крупный в мире бесплатный архив песенных текстов, аккордов, табулатур и нот


Бах Иоганн Себастьян - Air on a g String - аккорды и текст, таба, бас-таба, видео

Регистрация Запомнить меня
Войти через:  Facebook Google Twitter Vk Yandex Mail.ru

Бах Иоганн Себастьян - Air on a g String - аккорды и текст, таба, бас-таба, видео

Печатать
Просмотров: 452
Air on a g String
Бах Иоганн Себастьян
 
 Basic Bar Structure (smallest spacing = 1/16 note)
   -0--0--0--0--0--0--0--0--0--0--0--0--0--0--0--0-
    ^           ^           ^           ^     beats
 
 : -0----------------------------------------------
 :o-1-----------1-----------1-----------1----------
 : -0-----------0-----------0-----------0----------
 : ------------------------------------------------
 :o-3-----------3-----------2-----------2----------
 : ------------------------------------------------
 
   -0----------------------------------------------
   -1-----------1-----------1-----------1----------
   -2-----------2-----------0-----------0----------
   ------------------------------------------------
   -0----------------------------------------------
   ------------------------------------------------
    ^           ^           ^           ^
   -0-----------5-----1----------------------------
   -1-----------------------3-----1-----0---1------
   ------------------------------------------------
   -3-----------3-----------4-----------3----------
   ------------------------------------------------
   ------------------------------------------------
 
   ------------------------------------------------
   -0-----------0----------------------------------
   -0-----------------2-----0----------------------
   ------------------------------------------------
   ------------------------------------------------
   -------------3-----------1-----------1----------
    ^           ^           ^           ^
   -3----------------------------------------------
   -0-----------0-----------0-----------0----------
   -0-----------0-----------0-----------0----------
   -------------2-----------0-----------0----------
   ------------------------------------------------
   -0----------------------------------------------
 
 
   -3-----0-----------------------------3-----1----
   -------------------------3-----2----------------
   -------------3-----2----------------------------
   ------------------------------------------------
   -4-----------3-----------0-----------0----------
   ------------------------------------------------
 
   -1----------------------------------------------
   -3-----------3-----------3-----------3----------
   -2-----------2-----------2-----------2----------
   -0-----------0----------------------------------
   -------------------------3-----------3----------
   ------------------------------------------------
    ^           ^           ^           ^
   -1-----------------------------------1-----0----
   -------3-----------------1-----0----------------
   -------------2-----0----------------------------
   ------------------------------------------------
   -2-----------2----------------------------------
   -------------------------3-----------3----------
 
   -0-----------------------------------2-----3----
   -1-----------1-----------1-----------1----------
   -0-----------0-----------0-----------0----------
   ------------------------------------------------
   -3-----------3-----------2-----------2----------
   ------------------------------------------------
    ^           ^           ^           ^
   -------------0-----------0----------------------
   -1-----1--3--------------------3-----3-----1----
   -2----------------------------------------------
   -------------------------------------0----------
   -0----------------------------------------------
   -------------3-----------2----------------------
 
   ------------------------------------------------
   -0--------------0--1-----1-----------0----------
   -------2-----2-----------------------------2----
   -------------------------0-----------0----------
   -------------3----------------------------------
   -3----------------------------------------------
 
   ------------------------------------------------ :
   ------------------------------------------------o:
   -0---------------------------------------------- :
   -------------------------0-----3-----2---------- :
   -------0-----2-----3-----------------------0----o:
   -3---------------------------------------------- :
    ^           ^           ^           ^
 
   ------------------------------------------------
   -0-----------------------0--1--0-----0----------
   -------------0--------------------2--------0----
   -------------------------3-----------3----------
   ------------------------------------------------
   -3----------------------------------------------
    ^           ^           ^           ^
 
   -3----------------------------------------------
   ------------------------------------------------
   -------------------------------------3----------
   -2-----------2-----------0-----------0----------
   ------------------------------------------------
   ------------------------------------------------
 
   -------------0-----------------3-----1-----0----
   -------------------3-----2----------------------
   -2----------------------------------------------
   -------------------------2----------------------
   -4-----------3-----------------------0----------
   ------------------------------------------------
    ^           ^           ^           ^
   -0--1--------------------1--0-------------------
   -------------------------------3--1--0----------
   -------------------------------------------2----
   -0-----------0----------------------------------
   -------------------------3-----------3----------
   ------------------------------------------------
 
   ------------------------------------------------
   -------------0-----------0-----1-----3----------
   -1-----2----------------------------------------
   ------------------------------------------------
   -2-----------2-----------0-----------0----------
   ------------------------------------------------
 
   -------0-----1-----------1-----------0----------
   -3----------------------------------------------
   ------------------------------------------------
   ------------------------------------------------
   -------------0-----------2----------------------
   -4-----------------------------------3----------
    ^           ^           ^           ^
   ------------------------------------------------
   -3-----1-----0-----------0-----1--3--1-----0----
   -------------------2----------------------------
   -------------3-----------0----------------------
   -0----------------------------------------------
   ------------------------------------------------
 
   ------------------------------------------------
   ------------------------------------------------
   -2----------------------------------------------
   ------------------------------------------------
   -0-----------0----------------------------------
   -------------------------3-----------3----------
    ^           ^           ^           ^
   -------------------------------0----------------
   -1-----------------------1-----------3-----1----
   -2-----------------------2----------------------
   -0-----------------------0-----------2----------
   ------------------------------------------------
   -2-----------1-----------0----------------------
 
   -5-----------------------------------3-----1----
   ------------------------------------------------
   ------------------------------------------------
   -0-----------0----------------------------------
   -------------------------3-----------3----------
   ------------------------------------------------
 
   -0-----------3----------------------------------
   -------3-----------------------------------0--1-
   -------------------0-----2-----------2----------
   -------------------------------------0----------
   -2-----------2-----------3----------------------
   ------------------------------------------------
    ^           ^           ^           ^
   ------------------------------------------------
   -0-----------0----------------------------------
   -------------------2-----0----------------------
   ------------------------------------------------
   ------------------------------------------------
   -3-----------3-----------1-----------1----------
 
   -------------------------------------0----------
   -1-----------------------------------------3----
   -0-----------------------2----------------------
   ------------------------------------------------
   ------------------------------------------------
   -0-----------0-----------1-----------1----------
 
   -------------------------------------1-----0----
   -3-----------------------0----------------------
   -2-----------------------0----------------------
   -0----------------------------------------------
   ------------------------------------------------
   -2-----------1-----------3-----------3----------
    ^           ^           ^           ^
 
   -------0-----------------------------3-----1----
   -3-----------------------1----------------------
   -4-----------------------2----------------------
   ------------------------------------------------
   -------------------------0-----------0----------
   -4-----------3----------------------------------
    ^           ^           ^           ^
   -1----------------------------------------------
   -3----------------------------------------------
   -2----------------------------------------------
   -0-----------0----------------------------------
   -------------------------3-----------3----------
   ------------------------------------------------
 
   -------------------------------------------1----
   -------------------------------0-----3----------
   -0-----------------------0----------------------
   ------------------------------------------------
   -2-----------2-----------------------2----------
   -------------------------3----------------------
 
   -1-----------0-----------0-----------0-----1--3-
   -------3----------------------------------------
   -0-----------------------0----------------------
   ------------------------------------------------
   -3-----------3-----------1-----------2----------
   ------------------------------------------------
    ^           ^           ^           ^
   -------------------------------0-----3-----6----
   -1-----------------------1----------------------
   -2-----------------------0-----------0----------
   ------------------------------------------------
   -0-----------0----------------------------------
   -------------------------3----------------------
 
   -6-----------5----------------------------------
   -------------------------------------1----------
   ------------------------------------------------
   -3-----------3-----------2-----------2----------
   ------------------------------------------------
   ------------------------------------------------
 
   -------------1----------------------------------
   -0-----3----------------------------------------
   -------------------------------------2----------
   -0-----------0----------------------------------
   -------------------------3-----------3----------
   ------------------------------------------------
    ^           ^           ^           ^
 
   -------------------0--1--1--0-------------------
   -------------3--------------------------------3-
   -0-----------------------0-----------2----------
   ------------------------------------------------
   -2-----------------------3----------------------
   -------------3-----------------------1----------
    ^           ^           ^           ^
   ------------------------------------------------
   -1--0--------------0-----0--1--0-----0-----1----
   -------2-----2--------------------2-------------
   ------------------------------------------------
   ------------------------------------------------
   -3-----------1-----------3-----------3----------
 
   ------------------------------------------------
   -1----------------------------------------------
   -0----------------------------------------------
   -2----------------------------------------------
   -3----------------------------------------------
   ------------------------------------------------
                                              Fine
 

Добавлено: 03.07.2012
Другие материалы по этой песне:

Страница создана 28.02.2012
http://primanota.ru/johann-sebastian-bach/air-on-a-g-string-chords.htm
Привет, Гость.
Предлагаем пройти революционный курс по гитаре.
Подарок от PrimaNota.Ru, забирай!