PrimaNota.ru - самый крупный в мире бесплатный архив песенных текстов, аккордов, табулатур и нот


Бах Иоганн Себастьян - 2-Part Invention #13 in A-minor - аккорды и текст, видео

Регистрация Запомнить меня
Войти через:  Facebook Google Twitter Vk Yandex Mail.ru

Бах Иоганн Себастьян - 2-Part Invention #13 in A-minor - аккорды и текст, видео

Печатать
Просмотров: 447
Уроки эстрадного вокала в Санкт-Петербурге
2-Part Invention #13 in A-minor
Бах Иоганн Себастьян
E|-------------------------------------------------------------|
B|---------1-0---0-3--1-----1-----------0--------------1--0----|
G|-------2------------2-----------1-----------2-----2----------|
D|----2--------2---------------------------0-----2-------------|
A|-0-----0------------0-----0--3--2-----2-----3-----0--------2-|
E|-----------0---4-------0-----------0--------------------4----|

E|-----------------------------------0-----0-------------------|
B|-0--3--1------------------------------1--------1-------------|
G|--------------------------------------------2--------0-------|
D|-----------------------------0--------------------2-----3----|
A|-------0------0--3--2-----2-----3-----0-----3-----0-----5--0-|
E|-0---------0-----------0-------------------------------------|

E|------------1------------------------------------------------|
B|-------3----------3--0--3-----0----------------------------1-|
G|-2-------------------------0---------------------------------|
D|-------0--3----------0-----------0--3--2--------2------------|
A|----0-------0--2-----------------2-----------3-----0---------|
E|-1-------------------------3--------------3------------------|

E|-----------------------------------------------------------0-|
B|---1---3---0-----0-----1--------------------0-----1-----1----|
G|-2------------0--------------2-----2-----0-----0-----0-------|
D|-----3--------------2-----------3-----0-----3----------------|
A|-3---5-2------2-----3--0--------5-----------------3----------|
E|---------3----------------1-----------3----------------------|

E|----------1--0-|
B|-3-----3-------|
G|----0----------|
D|---------------|
A|---------------|
E|---------------|
Добавлено: 03.08.2013
http://primanota.ru/johann-sebastian-bach/2-part-invention-13-in-a-minor-chords.htm
Привет, Гость.
Предлагаем пройти революционный курс по гитаре.
Подарок от PrimaNota.Ru, забирай!