PrimaNota.ru - самый крупный в мире бесплатный архив песенных текстов, аккордов, табулатур и нот


Johan Ludvig Runeberg - Maamme Finland National Anthem - таба, видео

Регистрация Запомнить меня
Войти через:  Facebook Google Twitter Vk Yandex Mail.ru

Johan Ludvig Runeberg - Maamme Finland National Anthem - таба, видео

Печатать
Просмотров: 102
e --------------------5------------------|
b -1----------6--8-------6----8--6--5--6-|
g ---2--3--5---------5-----7-------------|
d ---------------------------------------|
a ---------------------------------------|
E ---------------------------------------|

e ----3----------------------------|
b -------6--5--3-----------3-------|
g -5--------------5--3--2-----5----|
d ---------------------------------|   2X
a ---------------------------------|
E ---------------------------------|

e ---------------3-5-------------------|
b ---6--------6-------6-----8--6--5--6-|
g -5---5----5------------7-------------|
d --------7----------------------------|
a -------------------------------------|
E -------------------------------------|


Listen the song from youtube and you'll see that it goes like this!

Enjoy!
Добавлено: 19.07.2012
Вам также может быть интересно:
Другие материалы по этой песне:
  • Аккорды и текст

Страница создана 19.07.2012
http://primanota.ru/johan-ludvig-runeberg/maamme-finland-national-anthem-chords.htm
Привет, Гость.
Предлагаем пройти революционный курс по гитаре.
Подарок от PrimaNota.Ru, забирай!