PrimaNota.ru - самый крупный в мире бесплатный архив песенных текстов, аккордов, табулатур и нот


Joey Ramone - Wonderful World - таба, видео

Регистрация Запомнить меня
Войти через:  Facebook Google Twitter Vk Yandex Mail.ru

Joey Ramone - Wonderful World - таба, видео

Печатать
Просмотров: 72
tabs by : me, aldous..
email : aldous_realo@yahoo.com

Wonderful World
(Punk Covers)
-Joey Ramone-

Intro
 (------x-8---------|
e|------------------|
B|------------------|
G|------------------|
D|----3-3-----------|
A|------------3-3---|
E|1-1-----1-1-------|


Verse1
e|----------------|----------------|----------------|----------------|
B|----------------|----------------|----------------|----------------|
G|----------------|----------------|----------------|----------------|
D|3---------------|7---------------|8---------------|7---------------|
A|3---------------|7---------------|8---------------|7---------------|
E|1---------------|5---------------|6---------------|5---------------|

e|----------------|----------------|----------------|----------------|
B|----------------|----------------|----------------|----------------|
G|----------------|----------------|6---------------|7---------------|
D|5---------------|3---------------|6---------------|7---------------|
A|5---------------|3---------------|4---------------|5---------------|
E|3---------------|1---------------|----------------|----------------|

e|----------------|----------------|----------------|----------------|
B|----------------|----------------|----------------|----------------|
G|6---------------|----------------|3---------------|5---------------|
D|6---------------|----6-----------|3---------------|5---------------|
A|4---------------|6p8-----8p6-4---|1---------------|3---------------|
E|----------------|----------------|----------------|----------------|

e|----------------|----------------|----------------|----------------|
B|----------------|----------------|----------------|----------------|
G|----------------|----------------|5---------------|----------------|
D|3---------------|----------------|5---------------|----------------|
A|3---------------|----------------|3---------------|----------------|
E|1---------------|----------------|----------------|----------------|


Verse2
e|----------------|----------------|----------------|----------------|
B|----------------|----------------|----------------|----------------|
G|----------------|----------------|----------------|----------------|
D|3---------------|7---------------|8---------------|7---------------|
A|3---------------|7---------------|8---------------|7---------------|
E|1---------------|5---------------|6---------------|5---------------|

e|----------------|----------------|----------------|----------------|
B|----------------|----------------|----------------|----------------|
G|----------------|----------------|6---------------|7---------------|
D|5---------------|3---------------|6---------------|7---------------|
A|5---------------|3---------------|4---------------|5---------------|
E|3---------------|1---------------|----------------|----------------|

e|----------------|----------------|----------------|----------------|
B|----------------|----------------|----------------|----------------|
G|6---------------|----------------|3---------------|5---------------|
D|6---------------|----6-----------|3---------------|5---------------|
A|4---------------|6p8-----8p6-4---|1---------------|3---------------|
E|----------------|----------------|----------------|----------------|

e|----------------|----------------|----------------|----------------|
B|----------------|----------------|----------------|----------------|
G|----------------|----------------|----------------|----------------|
D|3---------------|2-3-------------|2-3-----2-3-----|2-3-------------|
A|3---------------|2-3-------------|2-3-----2-3-----|2-3-------------|
E|1---------------|0-1-------------|0-1-----0-1-----|0-1-------------|


Chorus
e|----------------|----------------|----------------|----------------|
B|----------------|----------------|----------------|----------------|
G|5---------------|----------------|----------------|3-------2-------|
D|5---------------|----------------/3---------------|----------------|
A|3---------------|----------------/3---------------|----------------|
E|----------------|----------------/1---------------|----------------|

e|----------------|----------------|----------------|----------------|
B|----------------|----------------|----------------|----------------|
G|5---------------|------------5/--|----------------(3)-----(2)------|
D|5---------------|------------5/--|3---------------|----------------|
A|3---------------|------------3/--|3---------------|----------------|
E|----------------|----------------|1---------------|----------------|

 (---------------x-3---------------------------------------------------|
e|----------------|----------------|----------------|------------------|
B|----------------|----------------|----------------|------------------|
G|7---------------|----------------|3---------------|5-----------------|
D|7---------------|7---------------|3---------------|5-----------------|
A|5---------------|7---------------|1---------------|3-----------------|
E|----------------|5---------------|----------------|------------------|


Verse3
e|----------------|----------------|----------------|----------------|
B|----------------|----------------|----------------|----------------|
G|----------------|----------------|----------------|----------------|
D|3---------------|7---------------|8---------------|7---------------|
A|3---------------|7---------------|8---------------|7---------------|
E|1---------------|5---------------|6---------------|5---------------|

e|----------------|----------------|----------------|----------------|
B|----------------|----------------|----------------|----------------|
G|----------------|----------------|6---------------|7---------------|
D|5---------------|3---------------|6---------------|7---------------|
A|5---------------|3---------------|4---------------|5---------------|
E|3---------------|1---------------|----------------|----------------|

e|----------------|----------------|----------------|----------------|
B|----------------|----------------|----------------|----------------|
G|6---------------|----------------|3---------------|5---------------|
D|6---------------|----6-----------|3---------------|5---------------|
A|4---------------|6p8-----8p6-4---|1---------------|3---------------|
E|----------------|----------------|----------------|----------------|

e|----------------|----------------|----------------|----------------|
B|----------------|----------------|----------------|----------------|
G|10--------------|8---------------|7---------------|----------------|
D|10--------------|8---------------|7---------------|----------------|
A|8---------------|6---------------|5---------------|----------------|
E|----------------|----------------|----------------|----------------|

e|----------------|----------------|----------------|----------------|
B|----------------|----------------|----------------|----------------|
G|3---------------|3---------------|5---------------|----------------|
D|3---------------|3---------------|5---------------|----------------|
A|1---------------|1---------------|3---------------|----------------|
E|----------------|----------------|----------------|----------------|

 (--------------------------------x-2----------------------------------|
e|----------------|----------------|----------------|------------------|
B|----------------|----------------|----------------|------------------|
G|10--------------|8---------------|7---------------|------------------|
D|10--------------|8---------------|7---------------|------------------|
A|8---------------|6---------------|5---------------|------------------|
E|----------------|----------------|----------------|------------------|


Final
e|----------------|----------------|----------------|-------------------|
B|----------------|----------------|----------------|-------------------|
G|3---------------|----------------|5---------------|~~~----------------|
D|3---------------|----------------|5---------------|~~~----------------|
A|1---------------|----------------|3---------------|~~~----------------|
E|----------------|----------------|----------------|-------------------|

e|----------------|----------------|----------------|----------------|
B|----------------|----------------|----------------|----------------|
G|6---------------|----------------|8---------------|----------------|
D|6---------------|----6-----------|8---------------|----8---8--8--8-|
A|4---------------|6p8-----8p6-4---|6---------------|8p10------------|
E|----------------|----------------|----------------|----------------|

e|----------------|----------------|----------------||
B|----------------|----------------|----------------||
G|10--------------|----------------|10/-------------||
D|10--------------|----------------|10/-------------||
A|8---------------|----------------|-8/-------------||
E|----------------|----------------|----------------||
Добавлено: 16.08.2013
Другие материалы по этой песне:
  • Аккорды и текст

Страница создана 16.08.2013
http://primanota.ru/joey-ramone/wonderful-world-chords.htm
Привет, Гость.
Предлагаем пройти революционный курс по гитаре.
Подарок от PrimaNota.Ru, забирай!