PrimaNota.ru - самый крупный в мире бесплатный архив песенных текстов, аккордов, табулатур и нот


Joey Ramone - Rock N Roll Is The Answer - таба, видео

Регистрация Запомнить меня
Войти через:  Facebook Google Twitter Vk Yandex Mail.ru

Joey Ramone - Rock N Roll Is The Answer - таба, видео

Печатать
Просмотров: 101
Rock 'N' Roll Is The Answer


joey ramone


TRANSCRIBED BY RUDY GUZMAN


guzman_84@hotmail.com


                                      x2
e:--------------------------------------|
B:--------------------------------------|
G:--------------------------------------|
D:-4-4--4-7-7-7--2-2-2-----4-4--4-7-7-7-|
A:-2-2--2-5-5-5--0-0-0-----2-2--2-5-5-5-|
E:----------------------0---------------|

e:-----------|
B:-----------|
G:-----------|
D:-----------|
A:-2-2-------|
E:-0-0--5~~~-|


  verse
e:-----------------------------------------|
B:-----------------------------------------|
G:-----------------------------------------|
D:-4-4--4-7-7-7--2-2-2-----4-4--4-7-7-7----|
A:-2-2--2-5-5-5--0-0-0-----2-2--2-5-5-5--2-|
E:----------------------0----------------0-|

e:--------------------------------------|
B:--------------------------------------|
G:--------------------------------------|
D:-4-4--4-7-7-7--2-2-2-----4-4--4-7-7-7-|
A:-2-2--2-5-5-5--0-0-0-----2-2--2-5-5-5-|
E:----------------------0---------------|

e:-----------|
B:-----------|
G:-----------|
D:-----------|
A:-2-2-------|
E:-0-0--5~~~-|

   uhhh                 baby baby        we're going to have a ball     
e:-0-0-0-0-0-0-0-0-0-0-----------------------------------------------------------|
B:-0-0-0-0-0-0-0-0-0-0--3-3-3-3-3-3-3-3--2-2-2-2-2-2-2-2-2-2-2-2-2--3-2-3--5-3---|
G:-0-0-0-0-0-0-0-0-0-0--2-2-2-2-2-2-2-2--2-2-2-2-2-2-2-2-2-2-2-2-2-------------2-|
D:-2-2-2-2-2-2-2-2-2-2--0-0-0-0-0-0-0-0--2-2-2-2-2-2-2-2-2-2-2-2-2---------------|
A:-2-2-2-2-2-2-2-2-2-2--0-0-0-0-0-0-0-0--0-0-0-0-0-0-0-0-0-0-0-0-0---------------|
E:-0-0-0-0-0-0-0-0-0-0-----------------------------------------------------------|


e:-0-0-0-0-0-0-0-0-0-0-----------------------------------------|
B:-0-0-0-0-0-0-0-0-0-0--3-3-3-3-3-3-3-3--2--------2-2-2--------|
G:-0-0-0-0-0-0-0-0-0-0--2-2-2-2-2-2-2-2--3--------3-3-3--------|
D:-2-2-2-2-2-2-2-2-2-2--0-0-0-0-0-0-0-0--4--------4-4-4--------|
A:-2-2-2-2-2-2-2-2-2-2--0-0-0-0-0-0-0-0--4--------4-4-4--------|
E:-0-0-0-0-0-0-0-0-0-0-------------------2--------2-2-2--------|


chorus
  gt1                                           
e:---------------------------------------------|
B:---------------------------------------------|
G:---------------------------------------------|
D:---------------------------------------------|
A:-7---9--5--5--4---2----12---7--7---7---7--9--|
E:-5-0-7--3--3--2---0----10-0-5--5-0-5-0-5--7--|
  gt2                                           
e:---------------------------------------------|
B:---------------------------------------------|
G:---------------------------------------------|
D:------------0-----0--------------------------|
A:-7---9----2-----0------12---7--7---7---7--9--|
E:-5-0-7--3-----2-----0--10-0-5--5-0-5-0-5--7--|

  gt1                                           
e:---------------------------------------------|
B:---------------------------------------------|
G:---------------------------------------------|
D:---------------------------------------------|
A:-7---9--5--5--4---2----12---7--7---7---7--9--|
E:-5-0-7--3--3--2---0----10-0-5--5-0-5-0-5--7--|
  gt2                                          
e:---------------------------------------------|
B:---------------------------------------------|
G:---------------------------------------------|
D:------------0-----0--------------------------|
A:-7---9----2-----0------12---7--7---7---7--9--|
E:-5-0-7--3-----2-----0--10-0-5--5-0-5-0-5--7--|


   verse                              x4
e:--------------------------------------|
B:--------------------------------------|
G:--------------------------------------|
D:-4-4--4-7-7-7--2-2-2-----4-4--4-7-7-7-|
A:-2-2--2-5-5-5--0-0-0-----2-2--2-5-5-5-|
E:----------------------0---------------|

  gt2                                         x2
e:----------------------------------------------|
B:---4--4p2---------9-9p7---------4--4p2--------|
G:---4--4p2---------9-9p7---------4--4p2--------|
D:-4--------4p2-4---------9p7-9-----------4p2-4-|
A:----------------------------------------------|
E:----------------------------------------------|

   uhhh                 baby baby        we're going to have a ball     
e:-0-0-0-0-0-0-0-0-0-0-----------------------------------------------------------|
B:-0-0-0-0-0-0-0-0-0-0--3-3-3-3-3-3-3-3--2-2-2-2-2-2-2-2-2-2-2-2-2--3-2-3--5-3---|
G:-0-0-0-0-0-0-0-0-0-0--2-2-2-2-2-2-2-2--2-2-2-2-2-2-2-2-2-2-2-2-2-------------2-|
D:-2-2-2-2-2-2-2-2-2-2--0-0-0-0-0-0-0-0--2-2-2-2-2-2-2-2-2-2-2-2-2---------------|
A:-2-2-2-2-2-2-2-2-2-2--0-0-0-0-0-0-0-0--0-0-0-0-0-0-0-0-0-0-0-0-0---------------|
E:-0-0-0-0-0-0-0-0-0-0-----------------------------------------------------------|


e:-0-0-0-0-0-0-0-0-0-0-----------------------------------------|
B:-0-0-0-0-0-0-0-0-0-0--3-3-3-3-3-3-3-3--2--------2-2-2--------|
G:-0-0-0-0-0-0-0-0-0-0--2-2-2-2-2-2-2-2--3--------3-3-3--------|
D:-2-2-2-2-2-2-2-2-2-2--0-0-0-0-0-0-0-0--4--------4-4-4--------|
A:-2-2-2-2-2-2-2-2-2-2--0-0-0-0-0-0-0-0--4--------4-4-4--------|
E:-0-0-0-0-0-0-0-0-0-0-------------------2--------2-2-2--------|


chorus
  gt1                                           
e:---------------------------------------------|
B:---------------------------------------------|
G:---------------------------------------------|
D:---------------------------------------------|
A:-7---9--5--5--4---2----12---7--7---7---7--9--|
E:-5-0-7--3--3--2---0----10-0-5--5-0-5-0-5--7--|
  gt2                                           
e:---------------------------------------------|
B:---------------------------------------------|
G:---------------------------------------------|
D:------------0-----0--------------------------|
A:-7---9----2-----0------12---7--7---7---7--9--|
E:-5-0-7--3-----2-----0--10-0-5--5-0-5-0-5--7--|

  gt1                                           
e:---------------------------------------------|
B:---------------------------------------------|
G:---------------------------------------------|
D:---------------------------------------------|
A:-7---9--5--5--4---2----12---7--7---7---7--9--|
E:-5-0-7--3--3--2---0----10-0-5--5-0-5-0-5--7--|
  gt2                                          
e:---------------------------------------------|
B:---------------------------------------------|
G:---------------------------------------------|
D:------------0-----0--------------------------|
A:-7---9----2-----0------12---7--7---7---7--9--|
E:-5-0-7--3-----2-----0--10-0-5--5-0-5-0-5--7--|

  my parents are always...
  gt1                                          x3
e:----------------------------------------------|
B:----------------------------------------------|
G:----------------------------------------------|
D:--------------------------4-4-4-4-4-4-4-4-4---|
A:-5-5-5-5-5-5-5-5-5-5-5----2-2-2-2-2-2-2-2-2-0-|
E:-3-3-3-3-3-3-3-3-3-3-3-0----------------------|
  gt2                                     x3
e:------------------------------------------|
B:------------------------------------------|
G:-2h4-4-4-4-4-4-4-4-4--2h4-4-4-4-4-4-4-4-4-|
D:------------------------------------------|
A:------------------------------------------|
E:------------------------------------------|

e:-----------------------2-2-2-2~~~~~--|
B:-----------------------2-2-2-2~~~~~--|
G:-3---------------------3-3-3-3~~~~~--|
D:-4--4-4-4-4-4-4-4-4-4--4-4-4---------|
A:-4--4-4-4-4-4-4-4-4-4--4-4-4---------|
E:-2--2-2-2-2-2-2-2-2-2--2-2-2---------|

   solo                                                                  bar///////
e:---------------------------------------------------------------------------------|
B:-9b~~~~--9ah-9ah------------------------------------------9ah--------------------|
G:-9b~~~~----------9ah------9ah-11ah-9ah--11b--------9b-9b------9ah------9~~~------|
D:----------------------11ah--------------11b-9-11-9----------------11ah-9~~~------|
A:---------------------------------------------------------------------------------|
E:---------------------------------------------------------------------------------|

e:-------------------------------------------------------------------------|
B:-0h3p0h3p0h3p0h3p0-0h2p0h2p0h2p0h2p0-0h3p0h3p0h3p0h3p0-0h5p0h5p0h5p0h5p0-|
G:-------------------------------------------------------------------------|
D:-------------------------------------------------------------------------|
A:-------------------------------------------------------------------------|
E:-------------------------------------------------------------------------|

                           bar
e:------------------------------\-------------|
B:-0h7p0h7p0h7p0h7p0h7p0--0------\---(0)------|
G:------------------------0-------\--(0)------|
D:---------------------------------\----------|
A:--------------------------------------------|
E:--------------------------------------------|

e:-------------------------------------------------------------------------------------|
B:-18p15----18p15----18p15----18p15----18p15----18p15----18p15----18p15----18p15----15-|
G:-------17-------17-------17-------17-------17-------17-------17-------17-------17----|
D:-------------------------------------------------------------------------------------|
A:-------------------------------------------------------------------------------------|
E:-------------------------------------------------------------------------------------|

e:-----------------------------------------------------|
B:----15-14--------------------------------------------|
G:-16-------16-14--------------------------------------|
D:----------------17--16h17p16h17p16h17p16h17p16h17p16-|
A:-----------------------------------------------------|
E:-----------------------------------------------------|

e:--------------------------------------------9h10p9h10p9h10p9-------------------|
B:-------------------------------------------------------------7h8p7h8p7h8p7h8p7-|
G:----------------------10h12p10h12p10h12p10-------------------------------------|
D:-10h12p10h12p10h12p10----------------------------------------------------------|
A:-------------------------------------------------------------------------------|
E:-------------------------------------------------------------------------------|

                     bar/////////////////////////
e:------------------------------------------------------------|
B:-----12-----12-----15----------(15)-------------15\---------|
G:-14b----14b----14b------------------------------------------|
D:------------------------------------------------------------|
A:------------------------------------------------------------|
E:------------------------------------------------------------|


chorus
  gt1                                           
e:---------------------------------------------|
B:---------------------------------------------|
G:---------------------------------------------|
D:---------------------------------------------|
A:-7---9--5--5--4---2----12---7--7---7---7--9--|
E:-5-0-7--3--3--2---0----10-0-5--5-0-5-0-5--7--|
  gt2                                           
e:---------------------------------------------|
B:---------------------------------------------|
G:---------------------------------------------|
D:------------0-----0--------------------------|
A:-7---9----2-----0------12---7--7---7---7--9--|
E:-5-0-7--3-----2-----0--10-0-5--5-0-5-0-5--7--|

  gt1                                           
e:---------------------------------------------|
B:---------------------------------------------|
G:---------------------------------------------|
D:---------------------------------------------|
A:-7---9--5--5--4---2----12---7--7---7---7--9--|
E:-5-0-7--3--3--2---0----10-0-5--5-0-5-0-5--7--|
  gt2                                          
e:---------------------------------------------|
B:---------------------------------------------|
G:---------------------------------------------|
D:------------0-----0--------------------------|
A:-7---9----2-----0------12---7--7---7---7--9--|
E:-5-0-7--3-----2-----0--10-0-5--5-0-5-0-5--7--|

                                           x7
e:-------------------------------------------|
B:---------------------7b--------------------|
G:-7~~~~~~-6-7-9-7-6-7-----9~~~--7-6b--------|
D:-------------------------------------9p7-9-|
A:-------------------------------------------|
E:-------------------------------------------|

  pick slide
e:------------------------------------------------------------|
B:-x\---------------------------------------------------------|
G:-x\---------------------------------------------------------|
D:------------------------------------------------------------|
A:------------------------------------------------------------|
E:------------------------------------------------------------|

chorus
  gt1                                           
e:---------------------------------------------|
B:---------------------------------------------|
G:---------------------------------------------|
D:---------------------------------------------|
A:-7---9--5--5--4---2----12---7--7---7---7--9--|
E:-5-0-7--3--3--2---0----10-0-5--5-0-5-0-5--7--|
  gt2                                           
e:---------------------------------------------|
B:---------------------------------------------|
G:---------------------------------------------|
D:------------0-----0--------------------------|
A:-7---9----2-----0------12---7--7---7---7--9--|
E:-5-0-7--3-----2-----0--10-0-5--5-0-5-0-5--7--|

  gt1                                           
e:---------------------------------------------|
B:---------------------------------------------|
G:---------------------------------------------|
D:---------------------------------------------|
A:-7---9--5--5--4---2----12---7--7---7---7--9--|
E:-5-0-7--3--3--2---0----10-0-5--5-0-5-0-5--7--|
  gt2                                          
e:---------------------------------------------|
B:---------------------------------------------|
G:---------------------------------------------|
D:------------0-----0--------------------------|
A:-7---9----2-----0------12---7--7---7---7--9--|
E:-5-0-7--3-----2-----0--10-0-5--5-0-5-0-5--7--|




hillo son mex

19/04/12
Добавлено: 21.08.2013
Вам также может быть интересно:
Другие материалы по этой песне:
  • Аккорды и текст

Страница создана 21.08.2013
http://primanota.ru/joey-ramone/rock-n-roll-is-the-answer-chords.htm
Привет, Гость.
Предлагаем пройти революционный курс по гитаре.
Подарок от PrimaNota.Ru, забирай!