PrimaNota.ru - самый крупный в мире бесплатный архив песенных текстов, аккордов, табулатур и нот


Joe Walsh - Time Out - текст песни, таба, видео

Регистрация Запомнить меня
Войти через:  Facebook Google Twitter Vk Yandex Mail.ru

Joe Walsh - Time Out - текст песни, таба, видео

Печатать
Просмотров: 106
Авторы: Terry Trebandt, Joe Walsh

-------------------------------------------------------------------------------
                             TIME OUT - Joe Walsh
-------------------------------------------------------------------------------
From the Album: So What
1974
Tabbed by: Audaciter
E-mail: audaciter@bellsouth.net

Tuning: Standard

Intro repeat x4

e|----------------------|
B|----------------------|
G|--9-9-----------------|
D|--9-9-----------------|
A|--7-7-----------------|
E|--0-0-0-0-0-0-0-0-0-0-|


e|----3-----------------0---0-|
B|----3-----------------0---3-|
G|----0-----------------1---1-|
D|----0-----------------2---2-|
A|----2-----------------2---2-|
E|--2-3-------------0-2-0---0-|
      G                 E   E7

Repeat prior to to verse.

e|-----------------------------------|
B|------------------------------1----|
G|--9-9-9-9---------------------1--1-|
D|--9-9-9-9---------------------1--2-|
A|--7-7-7-7-7-5-0-5-0-4-2-0-2-0-0--2-|
E|---------------------------------0-|

Into verse...

e|----------------------|
B|----------------------|
G|----------------------|
D|----------------------|
A|--------4-0-0-5-0-0-6-|
E|--7-0-0---------------|


E                         A E                    E                   A   E
Goin' through the motions   tryin' not to snore  didn't know the gun was loaded
E                   A     E                      E                     A E
Rowin' through the ocean  Caught without an oar  someone said they all exploded

G                                                                      E   E7
Time out save the play try to make the mind last any old way you can
G                                                                      E   E7
Time out blown away When you speak your mind out never say what you plan


E                    A   E                   E                    A E
The Major in the hallway bangin' on the door askin' what the funny  smell was

E                        A    E                     E                       A       E
Wake you up and tell you it's ok to sleep some more by the way is there any you can sell us

Guitar solo over chorus =   G  E  E7  G  E  E7


E                      A       E                  E                                A    E
So the case is gettin' hotter, guilty 'til you're tried. Stick 'em up, you've just been busted

E                         A   E                       E                    A     E
Your basement's full of water forgot about the tide,  hope to God the pump ain't rusted

G                                                                      E   E7
Time out blown away when you speak your mind out never say what you plan
G                                                                      E   E7
Time out save the play try to make the mind last any old way you can


Exit with opening break.

E|-----------------------------------|
B|------------------------------1----|
G|--9-9-9-9---------------------1--1-|
D|--9-9-9-9---------------------1--2-|
A|--7-7-7-7-7-5-0-5-0-4-2-0-2-0-0--2-|
E|---------------------------------0-|
Добавлено: 26.06.2015
Вам также может быть интересно:
Другие материалы по этой песне:
  • Аккорды и текст

Страница создана 15.09.2013
http://primanota.ru/joe-walsh/time-out-chords.htm
Привет, Гость.
Предлагаем пройти революционный курс по гитаре.
Подарок от PrimaNota.Ru, забирай!