PrimaNota.ru - самый крупный в мире бесплатный архив песенных текстов, аккордов, табулатур и нот


Joe Walsh - Ilbt - таба, видео

Регистрация Запомнить меня
Войти через:  Facebook Google Twitter Vk Yandex Mail.ru

Joe Walsh - Ilbt - таба, видео

Печатать
Просмотров: 110
ILBT
Joe Walsh

as heard on the album "You Bought It...You Name It"


Tuning: standard

there are only three different parts to this, except for the little lead parts
this will show the rhythm three parts, and a couple of the lead parts

rhythm part 1
e|-----------------------------|
B|--5-----------------5-5------|
G|--4-----------------4-4------|
D|--2-----------------2-2------|
A|--2--------2--4--2--2-2------|
E|--0--2--4-----------0-0------|

sometimes adding this to the end of it
e|---4-4-4-----|
B|---5-5-5-----|
G|---4-4-4-----|
D|-------------|
A|-------------|
E|-------------|

for the verse…its rhythm part 2
e|----------------------------------|
B|---5-5---------2-2---------5-5----|
G|---4-4---------2-2---------4-4----|
D|---2-2---------2-2---------2-2----|
A|---2-2---------0-0---------2-2----|
E|---0-0-----------------b3--0-0----|

for the second verse, he will add Part 1 to part 2
e|-------------------------------------|
B|---5-5------------2-2---------5-5----|
G|---4-4------------2-2---------4-4----|
D|---2-2------------2-2---------2-2----|
A|---2-2------2-4-2-0-0---------2-2----|
E|---0-0--2-4---------------b3--0-0----|

chorus riff
e|------------------------------------|
B|------------------------------b3----|
G|--9-9-9-9-7-7-7-7-5-5-5-5-----b3----|
D|--9-9-9-9-7-7-7-7-5-5-5-5-----b3----|
A|--7-7-7-7/5-5-5-5/3-3-3-3-----------|
E|--------------------------3-5-------|

lead lick at approx 0:20 (and elsewhere)
e|----------------------|
B|----------------------|
G|----------------------|
D|----------------------|
A|---4/5-5-4-5-4-5/b7---|
E|----------------------|

lead lick at approx 1:16
e|----------------------|
B|------------17--------|
G|---16-(b16)----b16----|
D|----------------------|
A|----------------------|
E|----------------------|
the trick with this riff is to hit the 16 then bend it up to the pitch of 18 on the G string, 
then hit the 17 on the B, and then release the bend on the g, back to the 16

lead lick at approx 1:40
e|---3/4\3/4------|
B|---2/3\2/3------|
G|----------------|
D|----------------|
A|----------------|
E|----------------|

*sweet_inc*
Добавлено: 08.08.2013
Другие материалы по этой песне:
  • Аккорды и текст

Страница создана 08.06.2013
http://primanota.ru/joe-walsh/ilbt-chords.htm
Привет, Гость.
Предлагаем пройти революционный курс по гитаре.
Подарок от PrimaNota.Ru, забирай!