PrimaNota.ru - самый крупный в мире бесплатный архив песенных текстов, аккордов, табулатур и нот


Joe Walsh - All Night Long - текст песни, таба, видео

Регистрация Запомнить меня
Войти через:  Facebook Google Twitter Vk Yandex Mail.ru

Joe Walsh - All Night Long - текст песни, таба, видео

Печатать
Просмотров: 212
Уроки эстрадного вокала в Санкт-Петербурге
Авторы музыки: Joe Walsh
Авторы текста: Joe Walsh
Date: Wed, 6 Sep 2000 00:50:07 -0400
From: "Jesse Anderson" 
Subject: w/walsh_joe/all_night_long.tab

   Ok, my name is Jesse Anderson, I am a devoted Joe Walsh fan, I am 14 
years old and have played for less than 2 years, this is my second attempt 
at tabbing, so please be forgiving.



    The chords to this are under the tab, they are the bass notes to as far 
as I can tell..

    this first section I'm calling section 1

E|--0--3--0--2-----0--3--0--2-----0~~--|--0--3--0--2----0------------| 
B|--------------2--------------2-------|-------------2-----0h2--5----|  
G|-------------------------------------|-----------------------------| 
D|-------------------------------------|-----------------------------| 
A|-------------------------------------|-----------------------------| 
E|-------------------------------------|-----------------------------|
    E                                  A E

E|--------------|
B|--------------|
G|--2--2--2-----|
D|--2--2--2--2--|
A|--0--0--0--2--|
E|-----------0--|


E|--0--3--0--2-----0--3--0--2-----0~~--|--0--3--0--2----0------------| 
B|--------------2--------------2-------|-------------2-----0h2--5----|  
G|-------------------------------------|-----------------------------| 
D|-------------------------------------|-----------------------------| 
A|-------------------------------------|-----------------------------| 
E|-------------------------------------|-----------------------------|
   E                             A E

E|--------------|
B|--------------|
G|--2--2--2-----|
D|--2--2--2--2--|
A|--0--0--0--2--|
E|-----------0--|


     Chords same as in the first two lines in this next section, section 2.

E|--0--3--0--2--0----------|--0--3--0--2--0---------0---------0------| 
B|--0--3--0--2--0--2-------|--0--3--0--2--0--2------0--2------0------|  
G|-----------------0h1h2---|-----------------0h1h2-----0h1h2---------| 
D|-------------------------|-----------------------------------------| 
A|-------------------------|-----------------------------------------| 
E|-------------------------|-----------------------------------------|


E|--------------|
B|--------------|
G|--2--2--2-----|
D|--2--2--2--2--|
A|--0--0--0--2--|
E|-----------0--|



E|--0--3--0--2--0----------|--0--3--0--2--0---------0---------0------| 
B|--0--3--0--2--0--2-------|--0--3--0--2--0--2------0--2------0------|  
G|-----------------0h1h2---|-----------------0h1h2-----0h1h2---------| 
D|-------------------------|-----------------------------------------| 
A|-------------------------|-----------------------------------------| 
E|-------------------------|-----------------------------------------|


E|--------------|
B|--------------|
G|--2--2--2-----|
D|--2--2--2--2--|
A|--0--0--0--2--|
E|-----------0--|


  and there's the opening, now for the lyrics and chords

  A E                             
  We get ...
   A E
we put ...                      stay up...      

    (Chorus?)
    A 12 bar blues  A E(still with A blues)
  All night long,    All night long


chords the same

Chorus followed imediatly by Section

   We start ...


  We like ...
long,

sing along,

  E     D      A
ohh stay up all night long

   E E D D A A

  breaks into leads

  rythym behind leads(sorry, no time for the leads now)

   this is all blues rythyms and stuff

  A  D   A  E  A

  A  D   A  E  D  A



  A A A D

Section 1

   more leads


All night long!!! All night long, etc...






I'm sorry to not have the leads, but like I said, no time for that, I will 
tab them soon though, like in the next month or so. bare with me, I'm new at 
this, so I'm not sure about mistakes on this tabbing, I got this off of 
"Little Did He Know", so if you have a tape or CD of this, or even The 
Eagles  Live CD you could put what I have to it, I know it's not a lot, but 
it's a start..


  thanks for reading this.
    Jesse Anderson

   (14 y/o Joe Walsh wannabe)
Добавлено: 16.05.2012
Другие материалы по этой песне:

Страница создана 16.05.2012
http://primanota.ru/joe-walsh/all-night-long-chords.htm
Привет, Гость.
Предлагаем пройти революционный курс по гитаре.
Подарок от PrimaNota.Ru, забирай!