PrimaNota.ru - самый крупный в мире бесплатный архив песенных текстов, аккордов, табулатур и нот


Joe Walsh - Life Of Illusion - аккорды и текст, таба, видео

Регистрация Запомнить меня
Войти через:  Facebook Google Twitter Vk Yandex Mail.ru

Joe Walsh - Life Of Illusion - аккорды и текст, таба, видео

Печатать
Просмотров: 200
Авторы: Kenny Passarelli, Joe Walsh

Life Of Illusion
Joe Walsh
A Life Of Illusion
Joe Walsh
From the Album-"There Goes The Neighborhood"
1981
Written by Joe Walsh
Tabbed by Ray Scheidler
stingray12002@yahoo.com


Intro/Main Riff


E-----------------------------------------------
B-------------------------------------3---1---5-
G----------------------2------5---4-------------
D----------2---5---2------5---------------------
A--3---5----------------------------------------
E-----------------------------------------------

                                      C
E-------------------------------------0---------
B-----------------------------3--1----1---------
G-----------------2-----5--4----------0---------
D--------2--5--2-----5----------------2---------
A--3--5-------------------------------3---------
E-------------------------------------0---------


     F
Sometimes I can't help but thinkin' that I'm
                    C
Living a life of illusion
    F
And oh why can't we let it be and see through
                             C
The hole in this wall of confusion
        G
I just can't help but feeling
     F                  C
I'm living a life of illusion


(Intro/Main Riff)

 F
Pow,right between the eyes
                                    C
Oh how nature loves her little surprises
 F
Wow,it all seems so logical now
                                           C
It's just one of her better disguises
        G           
And it comes with no warning
 F                                     C
Nature loves her little surprises
G     F                C
         Continual crisis


(Solo)G FF G  G FF G  FF C

(Intro/Main Riff)


 F
Hey don't you know it's a waste of your day
                                  C
Caught up in endless solutions
                     F
That have no meaning just another hunch
                        C       G
Based upon jumping conclusions
G       F                               C     
         Caught up in endless solutions
G       F                                         C    
         Backed up against a wall of confusion

G       F                  C
         Living a life of illusion

(Fade)G F C   G F C  G F C
Добавлено: 28.07.2012
Другие материалы по этой песне:

Страница создана 19.04.2012
http://primanota.ru/joe-walsh/a-life-of-illusion-chords.htm
Привет, Гость.
Предлагаем пройти революционный курс по гитаре.
Подарок от PrimaNota.Ru, забирай!