PrimaNota.ru - самый крупный в мире бесплатный архив песенных текстов, аккордов, табулатур и нот


Joe Veras - Viejo Amigo - таба, видео

Регистрация Запомнить меня
Войти через:  Facebook Google Twitter Vk Yandex Mail.ru

Joe Veras - Viejo Amigo - таба, видео

Печатать
Просмотров: 110
capo is on 7 in this song


6 5 4  3  2  1
Em      (x-x-x-12-12-12)
D       (x-x-x-11-10-10)
C       (x-x-x-9-8-8)
G       (x-x-x-7-8-7)
Am      (x-x-x-9-10-8)
B       (x-x-x-11-12-11)
Em II   (x-x-x-9-8-7)


Intro:
|-----------14-15-14-------14-14h15------------------|
|---17-17--------------17---------------15-----------|
|----------------------------------------------16~---|
|----------------------------------------------------|
|----------------------------------------------------|
|----------------------------------------------------|

|------------------------------------12------------------||
|----------------12-13-12-----12-13-----12h13h12---------||
|------14-14---------------14----------------------12----||
|-----------------------------------------------------14-||
|--------------------------------------------------------||
|--------------------------------------------------------||

|---------------------------------------------|
|-------------------------------------15—12~--|
|------------11-12-12h11------11-12-----------|
|----14-14----------------14------------------|
|---------------------------------------------|
|---------------------------------------------|


|--------------------------------12-------------------||
|----------12-13-12-------12-13-----12h13h12----------||
|---14-14------------14----------------------12-------||
|-----------------------------------------------14----||
|-----------------------------------------------------||
|-----------------------------------------------------||


              sl                      sl 
|---14 / 15---15---15-/-15-------14---15---14~------|
|---15 / 17---17---17-/-17-------15---17---15~------|
|---------------------------------------------------|
|---------------------------------------------------|
|---------------------------------------------------|
|---------------------------------------------------|


-------10-/-12--12----10---12---12~---12------------||
-------12-/-13--13----12---13---13~---13------------||
----------------------------------------------------||
----------------------------------------------------||
----------------------------------------------------||
----------------------------------------------------||

          sl                           sl        sl       
|--14 / 15----15-15-15-----14 / 15----14 / 15----14~--|
|--15 / 17----17-17-17-----15 / 17----15 / 17----15~--|
|-----------------------------------------------------|
|-----------------------------------------------------|
|-----------------------------------------------------|
|-----------------------------------------------------|


|-10 / 12----12---12----12------10--12--10~----------------|
|-12 / 13----13---13----13------12--13--12~-----7h8-7------|
|-------------------------------------------------------9--|
|----------------------------------------------------------|
|----------------------------------------------------------|
|----------------------------------------------------------|



Em                                 G          
Viejo amigo, que bueno que te encontrado
 Am                   Em II            B                      
Tu conoces la mujer, de quien estoy enamorado.
        Em                           G  
Tu que a diario la vez y conoces su vida.
 Am                 Em II                                       
Llevale esta flor, llevale esta carta.
 B                                    Em              
Hablale de mi, dile que este hombre la ama.
                          D                
Que de insomnio me puedo morir.
        C                 G                          
Que no duermo pensando en ella.
  Em               D  Em                                     
Dile que se piade de mi, 
               C          G  
que me la paso deseando verla.
                                   G               
Soy tu amigo y quiero llevar tu recado.
       Am                        Em II                B
Pero dejame serte saber que en silencio yo tambien yo la amo
      Em                             G                       
Es verdad, la conosco y la veo a diario. 
  Am                                            
Quizas no le halga falta flores.
  Em II                                                         
Talvez no halga falta palabras. 
B 
Talvez no le halga falta amor.  
                          Em                                  
Esa mujer es a otro a quien ama.  
                                   D            
Yo de de insomnio tambien puedo morir.
        C           C       G                                   
Tampoco duermo pensando en ella.
                 Em        D               
 Amigo mio yo tambien como tu,
          C          C       G                      
aunque  la veo no  puedo tenerla.

Coro
Em              D                                        
solo nosotros sabemos (eeehhh)
C                    G                                            
lo que por ella sentimos (hay dios)
Em                  D      C                  G  {D C G}-rapido
hay como duele enamorarse y no ser correspondido.


SOLO:
|----------------14--15--14-----------------|
|---17-------17--------------17--------15~--|
|-------16------------------------16--------|
|-------------------------------------------|
|-------------------------------------------|
|-------------------------------------------|


|-------------------12--------||
|-13-------13---15-------15---||
|------12---------------------||
|-----------------------------||
|-----------------------------||
|-----------------------------||




|------------------------11------14---------|
|-13-------12~--------12-------------16-----|
|------12---------11--------------------16--|
|-------------------------------------------|
|-------------------------------------------|
|-------------------------------------------|


----14---------------15-------------||
---------16------16------17---------||
16-----------16--------------16-----||
------------------------------------||
------------------------------------||
------------------------------------||


|----15-------------14-------------14----------15~~|
|-------17--------------16------------16----17-----|
|-16--------16---16--------16---16-------16--------|
|--------------------------------------------------|
|--------------------------------------------------|
|--------------------------------------------------|


|-14-------------14-------14--------------------|
|----16------------16---------17~--8-7—8 / 9-8~-|
|--------16--16-------16------------------------|
|-----------------------------------------------|
|-----------------------------------------------|
|-----------------------------------------------|




Em                                     G  
Tu que a diaro la vez y conoces de su vida.
 Am                 Em II 
Llevale esta flor.  Llevale esta carta.
 B                                     Em  
Hablale de mi, dile que este hombre la ama.
                                  G 
Es verdad, la conosco y la veo a diario.
  Am      
Quizas no le halga falta flores.  
Em II       
Talvez no halga falta palabras.
B                             
Talvez no le halga falta amor. 
                           Em
Esa mujer es a otro a quien ama.

Coro
Em               D                                           
Solo nosotros sabemos (eeehh 2da vez)
 C                 G                                      
lo que por ella sentimos  (hay dios 2da vez)
Em                   D     C                G
Hay como duele enamorarse y no ser correspondido


www.joeveras.com
Добавлено: 19.03.2012
Другие материалы по этой песне:
  • Аккорды и текст

Страница создана 19.03.2012
http://primanota.ru/joe-veras/viejo-amigo-chords.htm
Привет, Гость.
Предлагаем пройти революционный курс по гитаре.
Подарок от PrimaNota.Ru, забирай!