PrimaNota.ru - самый крупный в мире бесплатный архив песенных текстов, аккордов, табулатур и нот


Joe Thomson - Never Too Late - таба, видео

Регистрация Запомнить меня
Войти через:  Facebook Google Twitter Vk Yandex Mail.ru

Joe Thomson - Never Too Late - таба, видео

Печатать
Просмотров: 86
Capo: 5

INTRO

E|------------------------------------------------------------------------------------------------|
B|------------------------------------------------------------------------------------------------|
G|--------0--------0-------------0-------0-------------0-------0----------------0---------0-------|
D|-----5--------5-------5-----4-------4-------4-----0-------0--------0--------2--------2-------2--|
A|--7--------7-------7-----5-------5--------5----2-------2--------2-------3--------3--------3-----|
E|------------------------------------------------------------------------------------------------|

^ Plays X2 then lyrics come in... (it's never too late...) But then continues till Verse 1.

VERSE 
E|--------x-----------------X-----------------X--------------X-----------|
B|--------x-----------------X-----------------X--------------X-----------|
G|--------X-----------------X-----------------X--------------X-----------|
D|-----5--X-----5-h7-----4--X-----4-h5-----0--X-----0-----2--X-----2-----|
A|--7-----X--7--------5-----X--5--------2-----X--2-----3-----X--3--------|
E|--------x-----------------X-----------------X--------------X-----------|

CHORUS
Chords: Cm, Gm, Fm, Em

VERSE 
E|--------x-----------------X-----------------X--------------X-----------|
B|--------x-----------------X-----------------X--------------X-----------|
G|--------X-----------------X-----------------X--------------X-----------|
D|-----5--X-----5-h7-----4--X-----4-h5-----0--X-----0-----2--X-----2-----|
A|--7-----X--7--------5-----X--5--------2-----X--2-----3-----X--3--------|
E|--------x-----------------X-----------------X--------------X-----------|

CHORUS
Chords: Cm, Gm, Fm, Em

MIDDLE 8
E|------------------------------------------------------------------------------------------------|
B|------------------------------------------------------------------------------------------------|
G|--------0--------0--------------0--------0--------------0--------0--------------0-------0-------|
D|-----2--------2--------2-----0--------0--------0-----5--------5--------5-----4--------4-------4-|
A|--3--------3--------3-----2--------2--------2-----7--------7--------7-----5--------5-------5----|
E|------------------------------------------------------------------------------------------------|

CHORUS
Chords: Cm, Gm, Fm, Em

OUTRO:
(Same chords of chorus but now with random fingerpicking.)

Добавлено: 02.10.2015
Другие материалы по этой песне:
  • Аккорды и текст

Страница создана 02.10.2015
http://primanota.ru/joe-thomson/never-too-late-chords.htm
Привет, Гость.
Предлагаем пройти революционный курс по гитаре.
Подарок от PrimaNota.Ru, забирай!