PrimaNota.ru - самый крупный в мире бесплатный архив песенных текстов, аккордов, табулатур и нот


Joe Tex - Aint Gonna Bump No More - бас-таба, видео

Регистрация Запомнить меня
Войти через:  Facebook Google Twitter Vk Yandex Mail.ru

Joe Tex - Aint Gonna Bump No More - бас-таба, видео

Печатать
Просмотров: 80
Ain't Gonna Bump No More
(With No Big Fat Woman)
Welcome to my tab of this 1977 disco classic from Joe Tex
Where it reached number 2 in the UK charts. Tab by bass50611.
A track I played often on the wheels of steel as a DJ.
Not exact in the Chorus/Outro as the original recording
But it does fit. Comments at bass254@btinternet.com

Intro:
G|------7/9-7------------------------------------------|
D|-----7-----------7-7/9-7-------7-7/9-7---------------|
A|-555---------555-----------------------------7-7/9-7-|
E|---------------------------555-----------555---------|

G|------7/9-7-------7/9-7--------------------------------|
D|-----7-----------7-------------7-7/9-7-----------------|
A|-555---------555-----------------------------7-7/9-7-9-|
E|---------------------------555-----------555-----------|

Verse 1:
G|---------------------------------7/9-7-----------------------------|
D|-----7-7/9-7--------------------7------------7-7/9-7-------7-7/9-7-|
A|------------------7-7/9-7---555----------555-----------------------|
E|-555----------555--------------------------------------555---------|

G|-------7-8-9----7/9-7---------------------------------------------7/9-7-|
D|---------------7----------7-7/9-7-----7-7/9-7--------------------7------|
A|----7-9-----55--------555--------------------------7-7/9-7---555--------|
E|-555-------------------------------555---------555----------------------|

G|--------------------------------------------7/9-7------------------------|
D|-----7-7/9-7-----7-7/9-7-------------------7----------7-7/9-7----7-7/9-7-|
A|-555-------------------------7-7/9-7---555--------555--------------------|
E|-------------555---------555----------------------------------555--------|

G|--------------------7/9-7--------------|
D|-------------------7-----------7-7/9-7-|
A|-----7-7/9-7---555---------555---------|
E|-555-----------------------------------|

Chorus:
G|-----------------------------------------------|
D|-----9-77-9-----9-77-9-----9-77-9-----9-77-9---|
A|--7h9--------7h9--------7h9--------7h9---------|
E|-7----------7----------7----------7------------|

G|--9h11-11-99-11---11--11-99-11---9h11-11-99-11---11-11-99-11-|
D|-------------------------------------------------------------|
A|-9---------------9--------------9---------------9------------|
E|-------------------------------------------------------------|

Repeat Chorus:

Instrumental Bridge:                                               .
G|-------------------------------7/9-7-------------------------------|
D|------------------------------7---------7-7/9-7----7-7/9-7-------7-|
A|-----------5-----------5---555-------555---------------------------|
E|-7-5-7-5-77--7-5-7-5-77-------------------------555--------555-55--|

Verse 2:
G|---------------------------------7/9-7-----------------------------|
D|-----7-7/9-7--------------------7------------7-7/9-7-------7-7/9-7-|
A|------------------7-7/9-7---555----------555-----------------------|
E|-555----------555--------------------------------------555---------|

G|------------------7/9-7----------------------------------------7/9-7-|
D|-----------------7---------7-7/9-7----7-7/9-7-----------------7------|
A|----7-7/9-7---555-------555----------------------7-7/9-7---555-------|
E|-555-------------------------------555--------555--------------------|

G|--------------------------------7-8-9---7/9-7------------------------|
D|-----7-7/9-7-----7-7/9-7---------------7---------7-7/9-7-----7-7/9-7-|
A|-555-------------------------7-9-----55-------555--------------------|
E|-------------555---------555------------------------------555--------|

G|--------------------7/9-7--------------|
D|-------------------7-----------7-7/9-7-|
A|-----7-7/9-7---555---------555---------|
E|-555-----------------------------------|

Repeat Chorus x2:

Outro:                          (Repeat This Bit To Fade/End)
G|-------------------------|    |----------------------|
D|-------------------------|    |-----9-77-9---99-77-9-|
A|-----------5-----------5-|    |--7h9-----------------|
E|-7-5-7-5-77--7-5-7-5-77--|    |-7-----------7--------|
Добавлено: 11.08.2015
Другие материалы по этой песне:
  • Аккорды и текст

Страница создана 11.08.2015
http://primanota.ru/joe-tex/aint-gonna-bump-no-more-chords.htm
Привет, Гость.
Предлагаем пройти революционный курс по гитаре.
Подарок от PrimaNota.Ru, забирай!