PrimaNota.ru - самый крупный в мире бесплатный архив песенных текстов, аккордов, табулатур и нот


Joe Stump - Paganinis Revenge - таба, видео

Регистрация Запомнить меня
Войти через:  Facebook Google Twitter Vk Yandex Mail.ru

Joe Stump - Paganinis Revenge - таба, видео

Печатать
Просмотров: 181
Tuning:

Tune Down 1/2 step (EbAbDbGbBbEb)


1st part of 1st half
|------------------------------------------------------------------------------|
|------------------------------------------------------------------------------|
|-2------5------7----9------8------5----7------4------5~-----------------------|
|-2------5------7----9------8------5----7------4------5~---6------7------9-\---|
|-0-0000---0000---00---0000---0000---00---0000---0000------6------7------9-\---|
|------------------------------------------------------------0000---0000-------|

|-----------------------------------------------------------------------------------|
|--------------------------------------------------------------------------3---3----|
|-2------5------7----9------8------5----7------4------5~-----------------2---5---4~-|
|-2------5------7----9------8------5----7------4------5~---------0-3-2-3---------AH-|
|-0-0000---0000---00---0000---0000---00---0000---0000----0-3-2-3--------------------|
|-----------------------------------------------------------------------------------|

|------------------------------------------------------------------------------|
|------------------------------------------------------------------------------|
|-2------5------7----9------8------5----7------4------5~-----------------------|
|-2------5------7----9------8------5----7------4------5~---6------7------9-\---|
|-0-0000---0000---00---0000---0000---00---0000---0000------6------7------9-\---|
|------------------------------------------------------------0000---0000-------|

|-----------------------------------------------------------------------------------|
|--------------------------------------------------------------------------3---3----|
|-2------5------7----9------8------5----7------4------5~-----------------2---5---4~-|
|-2------5------7----9------8------5----7------4------5~---------0-3-2-3------------|
|-0-0000---0000---00---0000---0000---00---0000---0000----0-3-2-3--------------------|
|-----------------------------------------------------------------------------------|

|----------------------------------------------------------------------------------------|
|----------------------------------------------------------------------------------------|
|----------------------------------------------------------------------------------------|
|------10-9------7-9------10-9------------10-9------7-9------10-9----12-10-7-------------|
|-------8-7------5-7-------8-7-------------8-7------5-7-------8-7----10--8-5-------------|
|-0000------0000-----0000------04-07-0000------0000-----0000------0----------------------|

|----------------------------------------------------------------------------------------|
|----------------------------------------------------------------------------------------|
|----------------------------------------------------------------------------------------|
|------10-9------7-9------10-9------------10-9------7-9----------------------------------|
|-------8-7------5-7-------8-7-------------8-7------5-7--5--2--3--5----------------------|
|-0000------0000-----0000------04-07-0000------0000------3--0--1--3----------------------|

2nd part of 1st half
|----------------------------------------------------------------------------------------|
|----------------------------------------------------------------------------------------|
|----------------------------------------------------------------------------------------|
|-2---------------------------------------------2-------------------3-2-----2------------|
|-0000-0000-0000-0000-0000-0000-3-2-3-5-3-2-----0000-0000-0000-0000-----5-3---5-3-2------|
|-------------------------------------------5-3------------------------------------------|

|----------------------------------------------------------------------------------------|
|----------------------------------------------------------------------------------------|
|----------------------------------------------------------------------------------------|
|-----------------2---------------------------------------------2------------------------|
|-5-3-2---3-2-----0000-0000-0000-0000-0000-0000-3-2-3-5-3-2-----0000-0000-0000-0000------|
|-------5-----5-3-------------------------------------------5-3--------------------------|

3rd part of 1st half
|------------------------|-------------|-------------|------------|--------------|
|------------------------|-------------|-------------|------------|--------------|
|------------------------|-------------|-------------|-9-12-10-12-|--------------|
|-------------9-12-11-12-|-11-14-12-14-|-12-15-14-15-|------------|-12-15-14-15--|
|-5--2--3--3-------------|-------------|-------------|------------|--------------|
|-3--0--1--5-------------|-------------|-------------|------------|--------------|

|------------|-------------|-------------|-------------|-------------|--------------|
|------------|-------------|-------------|-------------|-------------|--------------|
|-9-12-10-12-|-10-13-12-13-|-12-15-13-15-|-10-13-12-13-|-12-15-13-12-|-13-16-15-16--|
|------------|-------------|-------------|-------------|-------------|--------------|
|------------|-------------|-------------|-------------|-------------|--------------|
|------------|-------------|-------------|-------------|-------------|--------------|

|--------------|
|--------------|
|-13-14-11-13--|
|--------------|
|--------------|
|--------------|

|-------------------14-16-17-19-16~--|-----16-20-16-17--16----------------------16-------|
|----------14----17-------------17~--|---17-----------18--17-18--17-------17-18----17-18-|
|-13----16---------------------------|-16----------------------19---17-19----------------|
|------------------------------------|---------------------------------------------------|
|------------------------------------|---------------------------------------------------|
|------------------------------------|---------------------------------------------------|

|---------------------|
|----17---------------|
|-19----17-19-17-16~--|
|---------------------|
|---------------------|
|---------------------|

|--------------|-------------|-------------|------------|--------------|
|--------------|-------------|-------------|------------|--------------|
|--------------|-------------|-------------|-9-12-10-12-|--------------|
|---9-12-11-12-|-11-14-12-14-|-12-15-14-15-|------------|-12-15-14-15--|
|--------------|-------------|-------------|------------|--------------|
|--------------|-------------|-------------|------------|--------------|

|------------|-------------|-------------|-------------|-------------|--------------|
|------------|-------------|-------------|-------------|-------------|--------------|
|-9-12-10-12-|-10-13-12-13-|-12-15-13-15-|-10-13-12-13-|-12-15-13-12-|-13-16-15-16--|
|------------|-------------|-------------|-------------|-------------|--------------|
|------------|-------------|-------------|-------------|-------------|--------------|
|------------|-------------|-------------|-------------|-------------|--------------|

|--------------|
|--------------|
|-13-14-11-13--|
|--------------|
|--------------|
|--------------|

|-------------------14-16-17-20-19~--|-----16-19-16-17--16----------------------16-------|
|----------14h16h17-------------17~--|---17-----------18--17-18--17-------17-18----17-18-|
|-13----16---------------------------|-16----------------------19---17-19----------------|
|------------------------------------|---------------------------------------------------|
|------------------------------------|---------------------------------------------------|
|------------------------------------|---------------------------------------------------|

|---------------------|
|----17---------------|
|-19----17-19-17-16~--|
|---------------------|
|---------------------|
|---------------------|

4th part of 1st half
|----------------------------------------------------------------------------------------|
|----------------------------------------------------------------------------------------|
|-------------9-----------------------9~-----------------9-----------------------9~------|
|-777777-10-9-------------777777-10-9--------777777-10-9-------------777777-10-9---------|
|--------------77777-10-9-----------------7~--------------77777-10-9---------------------|
|----------------------------------------------------------------------------------------|

|----------------------------------------------------------------------------------------|
|-10-10-10-10-10-10-10-8---------------8-8-8-8-8-10-8------------------------------------|
|------------------------10~-7~-7h10p7----------------10-9~------7-9---10~-7~-----7--9~--|
|----------------------------------------------------------10~-10---10--------9-10-9-----|
|----------------------------------------------------------------------------------------|
|----------------------------------------------------------------------------------------|

|--------------------------------|-------------------------------------------------------|
|--------------------------------|----------------3-5-3-5-3-5-3-------------------3-5-3--|
|-------------------7-9-7--------|--------4-5-4-5---------------5-4-------4-5-4-5--------|
|-10-10-10---7-9-10-------10-7~--|--7-6-7---------------------------7-6-7----------------|
|----------7---------------------|-------------------------------------------------------|
|--------------------------------|-------------------------------------------------------|

|---------------------------------------------------------------------5-3-5-3-5-3--------|
|--5-3-5~---------------3-5-3-5-3-5-3-------------------3-5-3-5-3-5~--------------6-5----|
|---------------4-5-4-5---------------5-4-------4-5-4-5----------------------------------|
|---------7-6-7---------------------------7-6-7------------------------------------------|
|----------------------------------------------------------------------------------------|
|----------------------------------------------------------------------------------------|

|------------------3-1-3-1-3-1-----------------------------------------------------------|
|------------5-6---------------5-3-----------3-5---66666-55555-----6-5-------------------|
|--7-5-7-5-7-----7-----------------5-4-5-4-5-----5-------------4444----7-5---------------|
|--------------------------------------------------------------------------7~------------|
|----------------------------------------------------------------------------------------|
|----------------------------------------------------------------------------------------|

5th part of 1st half
|-----------------1---------------3---------------5-------3-----------------------1------|
|-5-3-2-3---3-2-3---3-2-3---3-2-3---3-2-3---3-2-3---3-2-3---3-2-3-5-3-2-3---3-2-3--------|
|---------2---------------2---------------2-------------------------------2--------------|
|----------------------------------------------------------------------------------------|
|----------------------------------------------------------------------------------------|
|----------------------------------------------------------------------------------------|

|---------------3---------------5-----------------------------------1-------------3------|
|-3-2-3---3-2-3---3-2-3---3-2-3---3-2-3-----2-------3-------5-------------------6---5-6--|
|-------2---------------2---------------2-3---3-2-3---3-2-3---3-2-3---3-2-3--------------|
|----------------------------------------------------------------------------------------|
|----------------------------------------------------------------------------------------|
|----------------------------------------------------------------------------------------|

|-----------------------------------------------------1-------------3--------------------|
|-3-5---3---------------------2-------3-------5-------------------6---5-6-3-5---3--------|
|-----5---3-5-2-3---2-----2-3---3-2-3---3-2-3---3-2-3---3-2-3-----------------5---3-5----|
|-----------------5---3-5----------------------------------------------------------------|
|----------------------------------------------------------------------------------------|
|----------------------------------------------------------------------------------------|

|----------------------------------------------------------------------------------------|
|--3-5-6---3~---/-----------------------17-------------------------------------------17~-|
|--------5--------14--14-14-14-14-17-16------------------------14--14-14-14-14-17-16-----|
|--------------------------------------------14-14-14-14-17-16---------------------------|
|----------------------------------------------------------------------------------------|
|----------------------------------------------------------------------------------------|

|----------------------------------------------------------------------------------------|
|----------------------------17-------------------------------------------17~------------|
|------14--14-14-14-14-17-16------------------------14--14-14-14-14-17-16----------------|
|-14~-----------------------------14-14-14-14-17-16--------------------------------------|
|----------------------------------------------------------------------------------------|
|----------------------------------------------------------------------------------------|

6th part of 1st half
|----------5---------6-5--------------------3---------5-3---------------1-0--------------|
|------5-----8-6-5-------8-6-5----------3-----6-5-3-------6-5\------1-------3-1-0--------|
|----5---5---------7-----------7-5----4---4---------5-------------2---2------------------|
|--7--------------------------------5---------------------------3------------------------|
|----------------------------------------------------------------------------------------|
|----------------------------------------------------------------------------------------|

|-3-1-0----------------------------------|----------------------------17-15-13-----------|
|-------3-1-0-------------------------5~-|-------15----------15----13----------17-15-13--|
|-------------2---------------2----------|-14-17----17-16-17----17-----------------------|
|---------------5-4-5-2-5-4-5---5-4-5----|-----------------------------------------------|
|----------------------------------------|-----------------------------------------------|
|----------------------------------------|-----------------------------------------------|

|---------------------------------17-15-13--------------------------------------17-15-13-|
|------------15----------15----13----------17-15-13---------15----------15----13---------|
|-16---14-17----17-16-17----17---------------------16-14-17----17-16-17----17------------|
|----------------------------------------------------------------------------------------|
|----------------------------------------------------------------------------------------|
|----------------------------------------------------------------------------------------|

|-----------------------------------------------|
|-17-15-13-----13----------------15----13-------|
|----------16-----16-14-13-14-16----16----16----|
|-----------------------------------------------|
|-----------------------------------------------|
|-----------------------------------------------|


|------------|------------------------10-8-6---------------------------------10-8-6------|
|------------|-------8---------8----6--------10-8-6---------8---------8----6--------10-8-|
|-14-16-13~-\|--7-10---10-9-10---10-----------------9--7-10---10-9-10---10---------------|
|------------|---------------------------------------------------------------------------|
|------------|---------------------------------------------------------------------------|
|------------|---------------------------------------------------------------------------|

|----------------------------10-8-6-----------|
|-6---------8---------8----6--------10-8-6----|
|---9--7-10---10-9-10---10-----------------9--|
|---------------------------------------------|
|---------------------------------------------|
|---------------------------------------------|

|-----------------------------|--------------------|----------------------|
|-6-----------8---6-----------|-------------8------|-----------8-10-8-----|
|---9-7-6-7-9---9---9-7-9-6~--|--9---7-9-10---10-9-|-10---9-10--------10--|
|-----------------------------|----7---------------|----8-----------------|
|-----------------------------|--------------------|----------------------|
|-----------------------------|--------------------|----------------------|

|-------------------------|-------------------------|--------------------------|
|----------------11-------|-------------11-13-11----|----------------13--------|
|-12----10-12-13----13-12-|-13----12-13----------13-|-14----12-14-15----15-14--|
|----10-------------------|----11-------------------|----12--------------------|
|-------------------------|-------------------------|--------------------------|
|-------------------------|-------------------------|--------------------------|

|-------------------------|-------------------------|------------------|
|-------------13-15-13----|----------------15-------|------------------|
|-15----14-15----------15-|-16----14-16-17----17-16-|-17-16-14----14~--|
|----13-------------------|----14-------------------|----------18------|
|-------------------------|-------------------------|------------------|
|-------------------------|-------------------------|------------------|

Bridge to Second Half (chords best approx by ear)

Harmony for Descending run:
|--------15-17-13-15----13--------------------------------------------------------|
|------17------------17----15-17-13-15----13--------------------------------------|
|-14h17--------------------------------16----14-16-12-14----12-----------------9--|
|--------------------------------------------------------15----14-15-14-12-----7--|
|--------------------------------------------------------------------------15--7--|
|---------------------------------------------------------------------------------|

|--------------------------------------------------------------------------------------|
|------8-10-6-8---6--------------------------------------------------------------------|
|-----9---------9---7-9-5-7---5------------------------9---------9---5--4--5--7--1--5--|
|-7h10----------------------9---7-9-5-7---5------------7--9--10--9---7--6--7--9--2--7--|
|---------------------------------------8---7-8-7-5----7--9--10--7---7--6--7--9--2--7--|
|---------------------------------------------------8-----7---8------5--4--5--7--0--5--|
|                                                                                      |
|--------------------------------------------------------------------------------------|
|-------------------------------------------------------------------13-12-13-15-12-13--|
|-----chordal harmony this bar--------------------------------------14-13-14-16-13-14--|
|--------------------------------------------------------------------------------------|
|--------------------------------------------------------------------------------------|
|--------------------------------------------------------------------------------------|


|-------------------10-(play chord more slowly)-|
|-------------------10--------------------------|
|--4--5--9--10--12--10--------------------------|
|--6--7-11--12--14--12------let ring------------|
|--6--7-11--12--14--12--------------------------|
|--4--5--9--10--12--10--------------------------|
|                                               |
|--------------------1--------------------------|
|-15-13-13--15--17---3--------------------------|
|-16-14-13--16--17---2------let ring------------|
|--------------------0--------------------------|
|-----------------------------------------------|
|-----------------------------------------------|

*********************************************************************
Into Second Half (yay!)
*********************************************************************

Chordal backing throughout - clean
|--------------------------5--------|
|----------6-----5-----6-----5------|
|*-----7-----7-----7-----7-----7---*|
|----7---7-----7-----7-----------7--|
|*-5-------------------------------*|
|-----------------------------------|

Second Half Solo
_______________
Note:  This solo is pretty much an improv free-time solo over the Solo backing, so perhaps
 it's better to make up your own instead of following what Joe does verbatim, but here's
 the tab as far as I can hear.
 Listen for timing.
________________


volume swells..................
|-17~----15~-----13~------12~\-8h10~----------------8-----|------------------------------|
|-----------------------------------------------------8b~-|----15--17--18br--17h18p17p15-|
|------------------------------------/7h10~----7-10-------|------14--14------------------|
|---------------------------------------------------------|------------------------------|
|---------------------------------------------------------|------------------------------|
|---------------------------------------------------------|------------------------------|

|--------15b~r--13-15-13---------------|-------------------------------------------AH----|
|-17~--------------------15-15~---15~\-|----bar vibrato------------------------AH---8----|
|--------------------------------------|----AH------AH-----------------------7-10-7---7--|
|--------------------------------------|----10~-----10~-----------------7-10-------------|
|--------------------------------------|-8-------8------8----10----8-10------------------|
|--------------------------------------|------------------10----10-----------------------|

|--------|10----8------8------8--------------------------------|-10--12--13--12~-|
|--AH-8b~|---10---8h10---8h10-----8--------8----8----8------8b-|---10--10--10----|
|--10----|----------------------7---7-10-7--------10---7-10----|-----------------|
|--------|-----------------------------------------------------|-----------------|
|--------|-----------------------------------------------------|-----------------|
|--------|-----------------------------------------------------|-----------------|

|--h13p12p10------------------------------------------------|----------------------------|
|-----------13p12-13p12-10----------------------------------|----------------------------|
|--------------------------12p10\9----9h10p9----9brbrbrbr~--|----------------------------|
|----------------------------------12--------12-------------|----------------------/10---|
|-----------------------------------------------------------|-----10--/12----10-12-------|
|-----------------------------------------------------------|-/13---------13-------------|

|----------------------------------------15b-12-13-12-10-12-10h12p10---10----------------|
|---------ah------------15--13--15--13-------------------------------13---13b-13p11p10---|
|----12---10~----10-12b---14--14--14--14-------------------------------------------------|
|------12------12------------------------------------------------------------------------|
|-12-------------------------------------------------------------------------------------|
|----------------------------------------------------------------------------------------|

|-13b-13p12p10---------------------------------------------10----------------------------|
|--------------13b-13p11p10----10-13-10-----------------------13-10----10----------------|
|---------------------------12----------13-13-12----10-12b----------13----13-12-10-------|
|------------------------------------------------12--------------------------------------|
|----------------------------------------------------------------------------------------|
|----------------------------------------------------------------------------------------|

|-----------------------------|----------------AH----------------------------------------|
|-----------------------------|----AH-----------6----------------AH-AH-AH----------------|
|----10-12-12b-12-10-12----10-|-----5--------------7--5--4--------7--5--4-AH-AH-AH--AH---|
|-12--------------------12----|--7-----7--6--4--------------7--6-----------7--6--4--6b---|
|-----------------------------|----------------------------------------------------------|
|-----------------------------|----------------------------------------------------------|

|------------------------------------|------------------------------|
|------------------------------------|-----------6-8-8b--6-8-8b-6~--|
|-------------------AH----------AHAH-|-------5-7-------7------------|
|--5-3-5br-3-5~--3---5---3-5br~--3-5-|-3-5-7------------------------|
|------------------5---5-------------|------------------------------|
|------------------------------------|------------------------------|

|------13-17p13------13-17p13------13-17p13-18p13-17p13------13-17p13------13-17p13-15---|
|----15--------15--15--------15--15--------------------15--15--------15--15--------------|
|-/14------------14------------14------------------------14------------14----------------|
|----------------------------------------------------------------------------------------|
|----------------------------------------------------------------------------------------|
|----------------------------------------------------------------------------------------|

|-17p15p13\12h13h15p13p12--------------12h13h15p13p12------------------------------------|
|-------------------------15---15---15----------------15---15---15-----------------------|
|----------------------------17---17---------------------17---15---14--------------------|
|--------------------------------------------------------------------17-17b----r-15h17---|
|----------------------------------------------------------------------------------------|
|----------------------------------------------------------------------------------------|

|----------------15-17-18-20-20-20b---r-20b~--20b-r-20b-(23)r-20b-(22)r-20b-(22)r-20b----|
|----------15-18-------------------------------------------------------------------------|
|--------17------------------------------------------------------------------------------|
|---15~----------------------------------------------------------------------------------|
|-17-------------------------------------------------------------------------------------|
|----------------------------------------------------------------------------------------|

|-r---20-20b-~-|-17-18-20-18-17-18-17h18p17----17----------------------------------------|
|--------------|----------------------------20----20b--rb-rbrbr--------------------------|
|--------------|---------------------------------------------------10-12b-r-10-12-10~\/--|
|--------------|------------------------------------------------/12----------------bardip|
|--------------|-------------------------------------------------------------------------|
|--------------|-------------------------------------------------------------------------|

    maintain quarter bend........
|-------|--15b--15p13b(1/4)-15/17-13~--h15h17p15p13h15p13\12-----------------------------|
|-------|---------------------------------------------------15-12h13h15-12h13h15---------|
|-10\__-|--------------------------------------------------------fast-----fast-----------|
|---bar-|--------------------------------------------------------------------------------|
|-------|--------------------------------------------------------------------------------|
|-------|--------------------------------------------------------------------------------|

|-(15)p13b--r-15p13----------------------12h13h15p13p12--13p12------12p10----------------|
|-------------------12h13h15-12h13h15-15---------------15-----15p13------13p12p10--------|
|---------------------fast------fast---------------------------------------------10\9----|
|----------------------------------------------------------------------------------------|
|----------------------------------------------------------------------------------------|
|----------------------------------------------------------------------------------------|

|----------------|-------------------------------13-17p13-----13h17p13\12h13h15p12-------|
|-----------bar--|-----------------------------15--------15------------------------------|
|-/9-10p9-9/\/\--|---------12------12-----12h14------------14----------------------------|
|----------------|-12h14h15---14h15--14h15-----------------------------------------------|
|----------------|-----------------------------------------------------------------------|
|----------------|-----------------------------------------------------------------------|

|-13--13--13-------------------|---------------------------------------------------------|
|---15--13--12h14h15---12------|---------------------------------------------------------|
|-------------fast---14---14br-|--------------------------------12------------------10b--|
|------------------------------|---------12h14-12h14h15-12h14h15--15p14p12-15p14p12------|
|------------------------------|-12h14h15------------------------------------------------|
|------------------------------|---------------------------------------------------------|

               this part is insanely fast, just diddling really
|-------------|--------------------------------------------------------------------------|
|-------------|----------------------------------------------------8h11p10p8-------------|
|-----9-------|-------7------------7-10-10p7----10p7---------7h9h10---------10p9p7h9h10--|
|-14-----12~--|-7h9h10--9h10-7h9h10---------10p7----10-7h9h10----------------------------|
|-------------|--------------------------------------------------------------------------|
|-------------|--------------------------------------------------------------------------|

|----------------------------------------------------------------------------------------|
|-8h11p10p8--8h10----8h10h11p10p8--8----8h10h11p10p8h10--8--------8h10h11p10p8-----------|
|----------10----10p9------------10-9h10---------------10-9p7h9h10------------10p9p7-----|
|-----------------------------------------------------------------------------------10---|
|----------------------------------------------------------------------------------------|
|----------------------------------------------------------------------------------------|

|----------------------------------------------------------------------------------------|
|-------8h10--8--------------------------------------------------------------------------|
|-7h9h10----10-9-10-7-9--7---------------------------------------------------------------|
|----------------------10-10p9h10p9p7--7h9h10p9p7h9p7-------7----------------------------|
|------------------------------------10--------------10-8h10-10-8-7h8h10p8p7-------7-8-7-|
|---------------------------------------------------------------------------10-8-10------|

lost it somewhere in here but something like    all correct from here on again
|---------------------------------------------|------------------------------------------|
|---------------------------------------------|------------------------------------------|
|---------------------------------------------|------10-9-7-6~------10-(12)r-10brbrbrbr--|
|---------------------------------------------|--7-7-----AH----7/12----------------------|
|-------------7----------------------------7~-|-7----------------------------------------|
|-10-8-7-8-10---10-8-7-8-7-8-10-8-7-8-7-5~----|------------------------------------------|

                                 T           T                          
|-------13h15p13--------------12-17p15p13p10-18p15p13p10h13p10---------15-18p17p15-------|
|-----15--------17-15h17p15p13---------------------------------15h17h18-----------18-----|
|--/14-----------------------------------------------------------------------------------|
|----------------------------------------------------------------------------------------|
|----------------------------------------------------------------------------------------|
|----------------------------------------------------------------------------------------|

                                                                           T
|-17p15p13--15p13p12--13p12p10--12p10p8-12h13h15p13p12-13p12p10---12h13h15-17p15p13p12---|
|---------17--------15--------13-------------------------------13------------------------|
|----------------------------------------------------------------------------------------|
|----------------------------------------------------------------------------------------|
|----------------------------------------------------------------------------------------|
|----------------------------------------------------------------------------------------|

  T
|-19p15p13p12-13p12p10---12p10p8-10----8----------------------|--------------------------|
|---------------------13------------12---10-8-10-10brbrbrbrbr-|--------------------------|
|-------------------------------------------------------------|--------12----------12----|
|-------------------------------------------------------------|-/12-15----15p12-15-------|
|-------------------------------------------------------------|--------------------------|
|-------------------------------------------------------------|--------------------------|

                                                                                       T
|--------------------------------------------15h17-------------------------------15h17-19|
|---------------------------------------13h15-----13------------------------13h15--------|
|-15p14p12------15p14p12--------12h14h15------------15p14p12--------12h14h15-------------|
|---------15p12---------15p12h15----------------------------15p12h15---------------------|
|----------------------------------------------------------------------------------------|
|----------------------------------------------------------------------------------------|

|--------------20b-20-18-20-18-17-18-17h18p17-------bar----|-----------------------------|
|--------------------------------------------20-20~\/\/\/-\|-----------13--------15--17--|
|----------17----------------------------------------------|--10~-12b----12/14~----14--14|
|--17h19h20------------------------------------------------|12----slow-------------------|
|----------------------------------------------------------|-----------------------------|
|----------------------------------------------------------|-----------------------------|

|-------------------------------------------------|--15b-r15-13h15p13p12------------13b--|
|-18~-p17p15--------------------------------------|---------------------15p13-15p12------|
|-----------17p16p14------------------------------|--------------------------------------|
|-------------------17-14h15h17~--15h17p15p14-----|--------------------------------------|
|--------------------------------------------17~--|--------------------------------------|
|-------------------------------------------------|--------------------------------------|

|-12-----------------------12h13h15p13p12h13p12------------------------------------------|
|---15p13-12h13h15-12h13h15--------------------15p13-------------------------------------|
|---------------------------------------------------12-12--------------------------------|
|---------------------------------------------------------10/17-15-15h17p15-14-----------|
|------------------------------------------------------------------------------13b-------|
|----------------------------------------------------------------------------------------|

|---------------------------------------|------------------------------------------------|
|------------------------starts-fading--|-AH----AH--------10-11-13-11-10-----------------|
|---------------------------------------|--5-----4--5/7------------------12brp10-12--10~-|
|--------------------------(12)r-----7~-|-----7------------------------------------12----|
|-13p12h13h15p13p12---------------------|------------------------------------------------|
|------------------15p12\10-------------|------------------------------------------------|

|------------------|---------------------------------------------------------------------|
|------------------|-and thus begins the ascending arpeggio that never finishes . . .----|
|---10-------------|---------------------------------------------------------------------|
|-9b---10----------|---------------------------------------------------------------------|
|--------10p8p7h8~-|---------------------------------------------------------------------|
|------------------|---------------------------------------------------------------------|
Добавлено: 18.05.2012
Другие материалы по этой песне:
  • Аккорды и текст

Страница создана 18.05.2012
http://primanota.ru/joe-stump/paganinis-revenge-chords.htm
Привет, Гость.
Предлагаем пройти революционный курс по гитаре.
Подарок от PrimaNota.Ru, забирай!