PrimaNota.ru - самый крупный в мире бесплатный архив песенных текстов, аккордов, табулатур и нот


Joe Stump - Fall From Grace - таба, видео

Регистрация Запомнить меня
Войти через:  Facebook Google Twitter Vk Yandex Mail.ru

Joe Stump - Fall From Grace - таба, видео

Печатать
Просмотров: 155
Joe Stump – Fall From Grace (Accoustic Instrumental)

This song is supposted to be finger-picked but it sounds just as good if you use a pick. 
This is the shortest Joe Stump song that I know of. (1:40)

||---------------------------------------------------------------------------------------|
||-------------------------------------------6-5h6p5p3-----3-----------------------------|
||-----5-------7--------9--------7-------5-------------5-4---5-4-------4~----------------|
||---7---7---9---9---10---10---9---9---7---7---------------------7-6-7-------------------|
||-0-------0-------0---------0-------0---------------------------------------------------|
||---------------------------------------------------------------------0-----------------|

|--------------------------------------------------------------5-7-8-7-4~----------------|
|--------------------------------------------6-5h6p5p3-------5---------------------------|
|------5-------7--------9--------7-------5-------------5-4-5-----------------------------|
|----7---7---9---9---10---10---9-------7---7---------------------------------------------|
|--0-------0-------0---------0-------0---------------------------------------------------|
|----------------------------------------------------------------------0-----------------|

|------------------------------------------------------------4-5-7-8-7h8p7p5-4-----------|
|----------6-5h6p5p3-----6-5h6p5p3---5---------3-5-6-5-3---------------------------------|
|------5-------------5-------------5---5-4---4-----------5-------------------------------|
|----7---7-------------3(stop)-------------0---------------------------------------------|
|--0-------------------------------------------------------------------------------------|
|----------------------------------------------------------0-----------------------------|

|------------------------------------------------------------4-5-7-8-7h8p7p5-12----------|
|----------6-5h6p5p3-----6-5h6p5p3---5---------3-5-6-5-3---------------------NH----------|
|------5-------------5-------------5---5-4---4-----------5-------------------------------|
|----7---7-------------3(stop)-------------0---------------------------------------------|
|--0-------------------------------------------------------------------------------------|
|----------------------------------------------------------0------------------0----------|

|-----------------------0----------------------12-----------0----------------------------|
|--------10---10--------0-------------------10----10--------0----------------------------|
|------9----9----9------8--ring-----------9----------9------8--ring----------------------|
|----7-------------7----7---------------7-------------------7----------------------------|
|--0--------------------7-------------0---------------------7----------------------------|
|-----------------------5-----------------------------------5----------------------------|

|----------------------------0---------------0-------------------------------------7-----|
|--------10---10---------4-------4---------6---6-----------5-------6-------6-----6-------|
|------9----9----9-----4---4---4---4-----5-------5-------5-------7-------7-----7---------|
|----7-------------7-------------------7-----------7---7-------7-------7-----------------|
|--0-----------------0---------------0---------------------------------------------------|
|----------------------------------------------------0-------0-------0-------0-----------|

|-----------10-------------------13-------------------------------------|
|---------9----9--------------9--(9)-12~--------------------------------|
|------10--------10--------10---(10)ring--------------------------------|
|---12--------------12---9-------(9)ring--------------------------------|
|-----------------------------------------------------------------------|
|-0--------------------0------------------------------------------------|

|----------0---------------0---------------0---------------------4--| 4x
|--------0---0-----------6---6-----------6---6-----------6-----6----|
|*-----5-------5-------5-------5-------7-------7-------7-----7-----*|
|----7-----------7---7-----------7---7-----------7---7--------------|
|*-0---------------0---------------0-------------------------------*|
|--------------------------------------------------0-------0--------|

|-----------------------0----------------------12-----------0----------------------------|
|--------10---10--------0-------------------10----10--------0----------------------------|
|------9----9----9------8--ring-----------9----------9------8--ring----------------------|
|----7-------------7----7---------------7-------------------7----------------------------|
|--0--------------------7-------------0---------------------7----------------------------|
|-----------------------5-----------------------------------5----------------------------|

|-------------------------------------------0------------------------------0---------0---|
|-------10---10-------------5-------------6---6-----------6------9-------0---0-----3---3-|
|-----9----9----9-------5-------5-------7-------7-------7------10------1-------1-1-------|
|---7-------------7---7---7---7---7---7-----------7---6-------9------2-------------------|
|-0-----------------0---------------0----------------------------------------------------|
|---------------------------------------------------0-------0------0---------------------|

  E7
|--0----------------||
|--0----------------||
|--1----------------||   
|--0----------ring--||
|--2----7-----------||
|--0---NH-----------||

In case you dont know who Joe Stump is, which most of you probally dont. He is a very
talented guitarist who plays instrumental rock/metal. Check him out at www.joestump.com.
Добавлено: 19.03.2012
Другие материалы по этой песне:

Страница создана 19.03.2012
http://primanota.ru/joe-stump/fall-from-grace-chords.htm
Привет, Гость.
Предлагаем пройти революционный курс по гитаре.
Подарок от PrimaNota.Ru, забирай!