PrimaNota.ru - самый крупный в мире бесплатный архив песенных текстов, аккордов, табулатур и нот


Joe Satriani - With Jupiter In Mind - таба, видео

Регистрация Запомнить меня
Войти через:  Facebook Google Twitter Vk Yandex Mail.ru

Joe Satriani - With Jupiter In Mind - таба, видео

Печатать
Просмотров: 113
Tabbed by: Jon Mallory
Email: jmallory@sasweb.org

Tuning: Standerd

This is all i have for now, maybe ill go back to it later, but i saw that no one else 
it yet, so i thought i would :) Enjoy.

e|-----------------------------------------------------------------------------|
B|-----------------------------------------------------------------------------|
G|-----------------------------------------------------------------------------|
D|--------8--------11--------------13-------------16---------------------------|
A|----6---------9-----9--------11------------14------14------------------------|
E|-4---------7----------7---9-----------12--------------12---------------------|

e|--------------------------------------------------------------------------|
B|-----------------------------------------------------------------------:--|
G|--------------------------------------------------------------------------|
D|-------------20-----------23--------------------18---15b16r15-------------|
A|--------18------------21-----21-------------16-----------------16------:--|
E|---16------------19--------------19----14--------------------------16-----|            
                                                    (2 Times)

Then

e|---------------------------------------------------------------------------|
B|---------------------------------------------------------------------------|
G|---------------------------------------------------------------------------|
D|-----------9---------13b14r13--------------------6--------10b11r10---------|
A|-------7------7----------------14-------------4------6---------------11----|
E|--5-------------------------------14-----2-----------------------------11--|

e|---------------------------------------------------------------------------|
B|---------------------------------------------------------------------------|
G|---------------------------------------------------------------------------|
D|-------4------8b9r8-------------11--------17b18r17----------18-------------|
A|----2----2----------9---------9----9---------------18----------------------|
E|-0---------------------9---7--------------------------18----16-------------|

thats all i got for now, email me if you want more of it,lol.
Добавлено: 13.03.2012
Другие материалы по этой песне:

Страница создана 10.03.2012
http://primanota.ru/joe-satriani/with-jupiter-in-mind-chords.htm
Привет, Гость.
Предлагаем пройти революционный курс по гитаре.
Подарок от PrimaNota.Ru, забирай!