PrimaNota.ru - самый крупный в мире бесплатный архив песенных текстов, аккордов, табулатур и нот


Joe Satriani - Surf With The Alien - таба, видео

Регистрация Запомнить меня
Войти через:  Facebook Google Twitter Vk Yandex Mail.ru

Joe Satriani - Surf With The Alien - таба, видео

Печатать
Просмотров: 160
    Use trem bar
    ~~~~~~~~~~~~~      Jet plane   T  P    T     P    T  P    T  P    T
E|-----------------|---------------22--21--22--|--21--22--21--22--21--22--21--|
B|-----------------|---------------------------|------------------------------|
G|--14-------------|---------------------------|------------------------------|
D|-----------------|---------------------------|------------------------------|
A|-----------------|---------------------------|------------------------------|
E|-----------------|---------------------------|------------------------------|

   T  P    T  P    T  P    T  P    T  P    T  P    T  P    T  P    T     P
E--22--21--22--21--22--21--22--21--22--21--22--21--22--21--22--19--22--|--19--|
B----------------------------------------------------------------------|------|
G----------------------------------------------------------------------|------|
D----------------------------------------------------------------------|------|
A----------------------------------------------------------------------|------|
E----------------------------------------------------------------------|------|

   T  P    T  P    T  P        T  P    T  P    T  P    T  P    T  P
E--22--19--22--19--22--21--21--22--21--22--17--22--17--22--17--22--19--|
B----------------------------------------------------------------------|
G----------------------------------------------------------------------|
D----------------------------------------------------------------------|
A----------------------------------------------------------------------|
E----------------------------------------------------------------------|

   T  P    T  P    T     P    T  P    T  P    T  P    T  P    T  P
E--22--19--22--19--22--|--16--22--16--22--17--22--17--22--16--22--16--|
B----------------------|----------------------------------------------|
G----------------------|----------------------------------------------|
D----------------------|----------------------------------------------|
A----------------------|----------------------------------------------|
E----------------------|----------------------------------------------|

   T  P    T  P    T  P    T  P    T  P    T  P    T     P    T  P    T  P
E--22--14--22--14--22--14--22--13--22--13--22--14--22--|--14--22--13--22--14--|
B------------------------------------------------------|----------------------|
G------------------------------------------------------|----------------------|
D------------------------------------------------------|----------------------|
A------------------------------------------------------|----------------------|
E------------------------------------------------------|----------------------|

   T  P    T  P    T  P   T  P   T   T  P   T  P
E--22--13--22--13--21--9--21--9--21--21--9--21--7------------|
B--------------------------------------------------7/--X--X--|
G------------------------------------------------------X--X--|
D------------------------------------------------------------|
A------------------------------------------------------------|
E------------------------------------------------------------|

                 P      P  H  H   P  P      P  P        P  H  P
E|--X--9>(10>(9)--7--10--7--9--10--9--7---------------|------------------------|
B|--X------------------------------------10--9--7-----|---------------------X--|
G|--X----------------------------------------------9--|--7--9--7/(6)--7--9-----|
D|----------------------------------------------------|------------------------|
A|----------------------------------------------------|------------------------|
E|----------------------------------------------------|------------------------|

        H  P           H  P           H  P        H  H  P  P        H  P
E--------------------------------|--------------------------------------------|
B--------------------------------|--------------------------------------------|
G-----6--7--6--------6--7--6-----|--------------------------------------------|
D--9-----------9--9-----------9--|--6--7--6-----6--7--9--7--6-----6--7--6-----|
A--------------------------------|-----------9-----------------9-----------9--|
E--------------------------------|--------------------------------------------|

                                                    sh       sh
     P  H  H  P         ~~~~                 P.M.--|  ~~~~
E---------------|--------------------|--------------------------|--------------|
B---------------|--------------------|--------------------------|--------------|
G---------------|--------------------|--------------------------|--------------|
D---------------|--------------------|--X-----------------------|--------------|
A--7--0--5--7--4/(2)/(4)--4---4/11/--|--X--6--7--6--4-----6--5--|--6--7--7--6--|
E---------------|--------------------|--------------------------|--------------|


   sh----|                 sh          sh----------------------------|
         ~~~~     ~~~~
E--------------|-----------------------------------------------------|
B--------------|-----------------------------------------------------|
G--------6-----|--(6)------6>(6.5)-----6>(6.5)--6>(6.5)--6>(6.5)-----|
D--------------|--------8-----------8-----------------------------8--|
A--6--7--------|-----------------------------------------------------|
E--------------|-----------------------------------------------------|

    sh             sh                                P.M.      P.M.
                   ~~~~                ~~~~          ~~~~               ~~~~
E|----------------------------------|--------------------------------|--------|
B|----------------------------------|--------------------------------|--------|
G|--6>(6.5)-----6---------------12--|--12----13----------------12----|--12----|
D|-----------8-----6-------/11------|------------12--11----13--------|--------|
A|----------------------------------|--------------------------------|--------|
E|----------------------------------|--------------------------------|--------|

                           hold bend
                           ~~~~~~            H                P       ~~~~
E----------------------------------|--11---------------11-------------------|
B-------------14>(16)>(15)>(16)----|------11--14>(16)------14--11--14>(16)--|
G--13------X-----------------------|----------------------------------------|
D------11--X-----------------------|----------------------------------------|
A----------------------------------|----------------------------------------|
E----------------------------------|----------------------------------------|

                 P
E------|--11--------------------------------------|
B--11--|------14--11--14---14>(16)>(14)/20/22t<0--|
G------|------------------------------------------|
D------|------------------------------------------|
A------|------------------------------------------|
E------|------------------------------------------|

             P           P     P                 P         P     P     P
E|------------------------------------------|----------------------------------|
B|------------------------------------------|----------------------------------|
G|------------------------------------------|----------------------------------|
D|--7--8--4--4--4--8--4--7--4/(3)/(4)--7/8--|--7--4/(3)/(4)--7--4--8--4--7-----|
A|------------------------------------------|----------------------------------|
E|------------------------------------------|----------------------------------|

                P           P     P        P        P                    ~~~~
E----------------------|---------------------------------------------|---------|
B----------------------|---------------------------------------------|---------|
G-------------------8--|--------------8------------------------------|---------|
D--4/(3)/(4)--7--4-----|--8--4--7--4-----7--4--8--7--4--8------------|---------|
A----------------------|-----------------------------------0--6>(8)--|-->(6)/--|
E----------------------|---------------------------------------------|---------|

                                    Use trem bar
                                    ~~~~~~~~~                         ~~~~~~
E------20>(23)--|-->(23)>(20)---20>(23)---------->(20)---20>(23)--|--(23)----|
B---------------|-------------------------------------------------|----------|
G---------------|-------------------------------------------------|----------|
D---------------|-------------------------------------------------|----------|
A---------------|-------------------------------------------------|----------|
E---------------|-------------------------------------------------|----------|

                                    trem bar pulled up high and then dive
          ~~~~~~       harm         harm
E-->(20)>(23)-----X/---------|---------------------------------------------|
B-----------------X/---------|---------------------------------------------|
G----------------------14----|------14t>19t<9------------------------------|
D----------------------------|---------------------------------------------|
A----------------------------|---------------------------------------------|
E----------------------------|---------------------------------------------|
Добавлено: 06.06.2012
Другие материалы по этой песне:
  • Аккорды и текст

Страница создана 06.06.2012
http://primanota.ru/joe-satriani/surf-with-the-alien-chords.htm
Привет, Гость.
Предлагаем пройти революционный курс по гитаре.
Подарок от PrimaNota.Ru, забирай!