PrimaNota.ru - самый крупный в мире бесплатный архив песенных текстов, аккордов, табулатур и нот


Joe Satriani - Super Colossal - таба, видео

Регистрация Запомнить меня
Войти через:  Facebook Google Twitter Vk Yandex Mail.ru

Joe Satriani - Super Colossal - таба, видео

Печатать
Просмотров: 494
Авторы музыки: Joe Satriani

This pretty much the whole song, maybe 1 or 2 wrong notes but its still pretty good.

Octives Pedal needed for this song

Riff 1
e|---------------------------------------------------|---------------------------------------------------------|
B|---------------------------------------------------|---------------------------------------------------------|
G|--------------------------------------9------------|-------------------9---------11b12r11--9--11--9----------|
D|---11~--9~----------------------9h11-----11~~------|----11~--9~-----------11~------------------------11--9---|
A|------------11--9--7-------9h11--------------------|-------------11--9---------------------------------------|
E|----------------------9~~--------------------------|---------------------------------------------------------|

e|---------------------------------------------------|--12p9---------------------------------------------------|
B|---------------------------------------------------|-------12-9-------12p9-----------------------------------|
G|--------------------------------------9------------|------------11-9-------11-9-------11p9-------------------|
D|---11~--9~----------------------9h11-----11~~------|----------------------------11-9-------11-9--------------|
A|------------11--9--7-------9h11--------------------|--------------------------------------------11-9---------|
E|----------------------9~~--------------------------|---------------------------------------------------------|


Riff 2
e|-------------------------------------------------------------------------|
B|-------------------------------------------------------------------------|
G|---------10~--11-10--11\13~-13~--11--10------------9~~-------------------|
D|---11~~---------------------------------11---9--11-----11--13b14r13--11--|
A|-------------------------------------------------------------------------|
E|-------------------------------------------------------------------------|

e|-------------------------------------------------------------------------|
B|-------------------11b13-11b13-------------------------------------------|
G|-------10~--11-10---------------11--10------------9~~--------------11~~--|
D|--11~~---------------------------------11---9--11-----11-11--9--11-------|
A|-------------------------------------------------------------------------|
E|-------------------------------------------------------------------------|


Riff 3
e|------------------------------------------------------------------|
B|-------6~--7--6--7\9~-9~--7--6----------5~------------------------|
G|---6~~-------------------------6---4--6----6--8B9R8--6~~----------|
D|------------------------------------------------------------------|
A|------------------------------------------------------------------|
E|------------------------------------------------------------------|

e|------------------------------------------------------------------|
B|-------6~--7--6--11b13-11b13--7--6----------5~-----------7~~------|
G|---6~~-----------------------------6---4--6----6-6--4--6----------|
D|------------------------------------------------------------------|
A|------------------------------------------------------------------|
E|------------------------------------------------------------------|

Riff 4
e|------------------------------------------------------------------|
B|---5\6--9--11--9--------------------------------------------------|
G|-------------------9--8--6--9-------6--8--8b9-8b9-8b9r8--6--8-----|
D|------------------------------8---8-------------------------------|
A|------------------------------------------------------------------|
E|------------------------------------------------------------------|

e|-------------------------------------------------------------------------------------------------------------------|
B|---5\6--9--11--9-----------------------------------11b12--9---------------11b12--9---------------------------------|
G|-------------------9--8--6--9---6-------9--9--9-6--------------9--9--9-6------------9--6---------------------------|
D|------------------------------8---8--8----------------------------------------------------8--11--9-----13b14--11---|
A|----------------------------------------------------------------------------------------------------11-------------|
E|-------------------------------------------------------------------------------------------------------------------|

Outro
e|--12p9---------------------------------------------------|
B|-------12-9-------12p9-----------------------------------|
G|------------11-9-------11-9-------11p9-------------------|
D|----------------------------11-9-------11-9--------------|
A|--------------------------------------------11-9---------|
E|---------------------------------------------------------|
                       Repeat 2x (after Riff1)

Song Order
Riff1
Riff2
Riff3
Riff4
Riff1
Solo
Riff2
Riff3
Riff4
Riff1
Outro

Love this song, have a blast with it :D
Добавлено: 12.04.2012
Другие материалы по этой песне:

Страница создана 12.04.2012
http://primanota.ru/joe-satriani/super-colossal-chords.htm
Привет, Гость.
Предлагаем пройти революционный курс по гитаре.
Подарок от PrimaNota.Ru, забирай!