PrimaNota.ru - самый крупный в мире бесплатный архив песенных текстов, аккордов, табулатур и нот


Joe Satriani - Profesor Satchafunkilus - таба, видео

Регистрация Запомнить меня
Войти через:  Facebook Google Twitter Vk Yandex Mail.ru

Joe Satriani - Profesor Satchafunkilus - таба, видео

Печатать
Просмотров: 136
Artist: Joe Satrani
Song: Profesor Satchafunkilus
Album: Professor Satchafunkilus And the Musterion Of Rock
Relaease Date April The Second 2007


This Is How I Play The Song 


May Not Be 100% But It Sounds Correct To Me


|---------------------------------------------------------------|
|-----12-14-14-14-14p12p10-12~-10~-7-10-10-10-12~-10~-----------|
|---------------------------------------------------------------|
|---------------------------------------------------------------|
|---------------------------------------------------------------|
|---------------------------------------------------------------|

|---------------------------------------------------------------|
|----------------8-----------10—6hb-----------------------------|
|------------7-9--------7-9----------7--------------------------|
|------5-5/9--------5/9-----------------------------------------|
|---------------------------------------------------------------|
|---------------------------------------------------------------|

|---------------------------------------------------------------|
|----------------8-----------10—6hb------12b14------------------|
|------------7-9--------7-9----------7--------------------------|
|------5-5/9--------5/9-----------------------------------------|
|---------------------------------------------------------------|
|---------------------------------------------------------------|

|---------------------------------------------------------------|
|----------------8-----------10—6hb------12b14-14-14-14-12-10p8-|
|-----------7-9--------7-9----------7---------------------------|
|-----5-5/9--------5/9------------------------------------------|
|---------------------------------------------------------------|
|---------------------------------------------------------------|

|---------------------------------------------------------------|
|-----12-14-14-14-14p12p10-12~-10~-7-10-10-10-12~-10~-----------|
|---------------------------------------------------------------|
|---------------------------------------------------------------|
|---------------------------------------------------------------|
|---------------------------------------------------------------|



Thats all I can figure out as the rest is pretty Quiet

Добавлено: 07.04.2012
Другие материалы по этой песне:
  • Аккорды и текст

Страница создана 07.04.2012
http://primanota.ru/joe-satriani/profesor-satchafunkilus-chords.htm
Привет, Гость.
Предлагаем пройти революционный курс по гитаре.
Подарок от PrimaNota.Ru, забирай!