PrimaNota.ru - самый крупный в мире бесплатный архив песенных текстов, аккордов, табулатур и нот


Joe Satriani - Out Of The Sunrise - аккорды и текст, видео

Регистрация Запомнить меня
Войти через:  Facebook Google Twitter Vk Yandex Mail.ru

Joe Satriani - Out Of The Sunrise - аккорды и текст, видео

Печатать
Просмотров: 154
Out Of The Sunrise
Joe Satriani
Chords:

D  Dsus4  D  Bm7  A  G7M  




--------------------|--------------------|
--15-----15-----15--|--------------------|
--11-----12-----11--|--------------------|
--0-----------------|--------------------|
--------------------|--------------------|
--------------------|--------------------|


---------------2----|--------------------|
--10-----5----------|--------------------|
--7------6-----4----|--------------------|
--------------------|--------------------|
--------------------|--------------------|
--7------5-----3----|--------------------|




Добавлено: 07.03.2012
Другие материалы по этой песне:

Страница создана 07.03.2012
http://primanota.ru/joe-satriani/out-of-the-sunrise-chords.htm
Привет, Гость.
Предлагаем пройти революционный курс по гитаре.
Подарок от PrimaNota.Ru, забирай!