PrimaNota.ru - самый крупный в мире бесплатный архив песенных текстов, аккордов, табулатур и нот


Joe Satriani - Not Of This Earth - аккорды и текст, видео

Регистрация Запомнить меня
Войти через:  Facebook Google Twitter Vk Yandex Mail.ru

Joe Satriani - Not Of This Earth - аккорды и текст, видео

Печатать
Просмотров: 113
Not Of This Earth
Joe Satriani
E|--0-----|--0-----|--0-----|--0-----|
B|--4-----|--3-----|--4-----|--5-----|
G|--6-----|--5-----|--6-----|--7-----|
D|--6-----|--5-----|--6-----|--7-----|
A|--------|--------|--------|--------|
E|--------|--------|--------|--------|

Play bar eight times
E|---------------------------|
B|---------------------------|
G|---------------------------|
D|---------------------------|
A|---------------------------|
E|--0--0--0--0---0--0--0--0--|


You play these previous more than four/eight times, obviously they repeat :)

There are two guitars playing, one high and one low - hopefully you can easily
see the two seperately.

Do these trems with the tremolo bar (applies to both guitars):-
~~~~~~~~ ~~~~~~~~ ~~~~~~~~
E|----11--------------|----10--------------|----/11--------------|
B|--------------12----|--------------10----|---------------12----|
G|----8---------------|----7---------------|----/8---------------|
D|--------------9-----|--------------7-----|---------------9-----|
A|--------------------|--------------------|---------------------|
E|--------------------|--------------------|---------------------|

~~~~~~~~ ~~~~~~~~ ~~~~~~~~ Slow dive w/trem bar
E|--12------(12)-------|----11--------------|----10---------------|
B|---------------------|--------------12----|--------------10-----|
G|--9-------(9)--------|----8---------------|----7----------------|
D|---------------------|--------------9-----|--------------7------|
A|---------------------|--------------------|---------------------|
E|---------------------|--------------------|---------------------|

~~~~~~~~ ~~~~~~~~
E|----/11--------------|--12------(12)-------|
B|---------------12----|---------------------|
G|----/8---------------|--9-------(9)--------|
D|---------------9-----|---------------------|
A|---------------------|---------------------|
E|---------------------|---------------------|

H H H H P P P P
E|---------------------------------------------------|
B|---------------------------------------------------|
G|---------------------------------------------------|
D|--------------------9--11--13----11--9-------------|
A|----X----9--11--13----------------------13--11--9--|
E|---------------------------------------------------|

H H H H H H P P P P P P
E|-------------------------------------------------------------------|
B|-------------------------------------------------------------------|
G|-------------------------------------------------------------------|
D|--------------7--9--10----9--10--12--10--9-------------------------|
A|----7--9--10--------------------------------12--10--9/7------------|
E|---------------------------------------------------------10--8--7--|

H H H H P P P
E|------------------------------------------------
B|------------------------------------------------
G|------------------------------------------------
D|--------------------9--11--13----11--9----------
A|----X----9--11--13----------------------13--11--
E|------------------------------------------------

H H H H P P H H H H P P H H
E--------------------|--------------------------------------------
B--------------------|------------------7--9--10--9--7/9--10--12--
G--------------6--7--|--9--7--6--7--9----------------------------
D-----6--7--9--------|--------------------------------------------
A--9-----------------|--------------------------------------------
E--------------------|--------------------------------------------

H H P P H ~~~~~~
E--9--10--12--10--9--10/16>(17)-----|
B-----------------------------------|
G-----------------------------------|
D-----------------------------------|
A-----------------------------------|
E-----------------------------------|

In case you're not used to reading my style of TAB, this last part means to
slide from 10th to 16th and then bend up a semi-tone (sounding like the
string fretted at the 17th fret) and then vibrato - trust me :)

H H H H P P P
E|------------7--9--11----9--7---------
B|--7--9--11--------------------11--9--
G|-------------------------------------
D|-------------------------------------
A|-------------------------------------
E|-------------------------------------

H H H H P P P H H P P P P
E------------7--|--8--10--8--7--------7--5--7--8--7--5-----------
B--7--8--10-----|---------------8-----------------------8--7--5--
G---------------|------------------9-----------------------------
D---------------|------------------------------------------------
A---------------|------------------------------------------------
E---------------|------------------------------------------------

P H P H H P P P P H H H H P P
E-------------------------------------|---------------------------------------
B-------------------------------------|---------------------------------------
G--7--5--7--5/4--5--7--5--4-----------|---------------------------------------
D----------------------------7--5--4--|----------------9--11--13---13--11--9--
A-------------------------------------|-----9--11--13-------------------------
E-------------------------------------|---------------------------------------

H H H H P P H H H P H H P P
E--------------------|----------------------------------------------------------
B--------------------|----------------------------------------------------------
G--------------------|-----------------------------7--9--7------7--9--11--9--7--
D-------------9--11--|--12--11--9/7------7--9--11-----------11------------------
A--9--11--12---------|---------------11-----------------------------------------
E--------------------|----------------------------------------------------------

P H H P H H P P P P
E---------------------------------------------|
B---------------------------------------------|
G---------------------------------------------|
D--11--7--9--11--7--9--11--9--7---------------|
A--------------------------------11--9--7/----|
E---------------------------------------------|

I've spaced these to emphasize the phrasing...


H P H P H P H P
E|------18---19--18---16---18--16--------------------------------|
B|-----------------------------------17---19--17----16---17--16--|
G|---------------------------------------------------------------|
D|---------------------------------------------------------------|
A|---------------------------------------------------------------|
E|---------------------------------------------------------------|

H P H P H P H P
E|--15---17--15----14---15--14-----------------------------------
B|--------------------------------15---17--15/12----13---15--13--
G|---------------------------------------------------------------
D|---------------------------------------------------------------
A|---------------------------------------------------------------
E|---------------------------------------------------------------

H P H P H P H P sh
E-----------------12---14--12--|--11---12--11-----------------------
B--12---13--12-----------------|-----------------11---12--11----9---
G------------------------------|------------------------------------
D------------------------------|------------------------------------
A------------------------------|------------------------------------
E------------------------------|------------------------------------

sh H P H P H P H P H P H P
E--9---10--9----7---9--7----5---7--5--|--9---10--9----7---9--7----5---7--5--
B-------------------------------------|-------------------------------------
G-------------------------------------|-------------------------------------
D-------------------------------------|-------------------------------------
A-------------------------------------|-------------------------------------
E-------------------------------------|-------------------------------------

H P H P
E--4---5--4------------------|
B--------------3---5--3---2--|
G----------------------------|
D----------------------------|
A----------------------------|
E----------------------------|

H H H H P P P H H
E|----------------------------------------------------------
B|----------------------------------------------------------
G|----------------------------------------------------------
D|---------------9--11--13----11--9-------------------------
A|----9--11--13----------------------13--11------9--10--12--
E|----------------------------------------------------------

H H P P H H P P
E---------|--------------------------------
B---------|--------------------------------
G---------|--------------------------------
D--9--10--|--12--10--9/10--12--14--12--10--
A---------|--------------------------------
E---------|--------------------------------

P H H P H H P H ~~~~~
E-------------------------------------------------------------|
B-------------------------------------------------------------|
G-------------------------------------------------------------|
D-------------------------------------------------------------|
A--14--10--12--14--10--12--14--12--10-------------------------|
E--------------------------------------12>(14)>(12)----(12)/--|

H P H H P H H H H P P H H
E|------------------------------------------------------
B|------------------------------------------------------
G|-----------------------------6/8--9--11--9--8--9--11--
G|-----------6--8--9--6--8--9---------------------------
B|--7--6--7---------------------------------------------
E|------------------------------------------------------

H H P P H P H H P P
E----------------------------10--12--14--12--|--10--
B--9--11--12--11--9--11--12------------------|------
G--------------------------------------------|------
D--------------------------------------------|------
A--------------------------------------------|------
E--------------------------------------------|------

P H H P P P ~~~~~~
E----------------------------12--9-------------------------------------|
B--14--10--12--14--12--10/9---------10---------------------------------|
G---------------------------------------11--9/4------------------------|
D------------------------------------------------7---------------------|
A---------------------------------------------------9--5/4----(4)------|
E----------------------------------------------------------------------|

~~~~~ ~~~~~
E|-----14>(16)>(14>----14--12--|--14>(16)>(14)----12------------------------|
B|-----------------------------|----------------------13----(13)----12------|
G|o-----4>( 6)>( 6)----4---2---|--4>( 6)>( 6)-----2-------------------------|
D|o----------------------------|----------------------3------(3)----2-------|
A|-----------------------------|--------------------------------------------|
E|-----------------------------|--------------------------------------------|


1.|--------------------------------------------------------|
~~~~~~ ~~~~~~~~~
E|----14>(16)-------/16--17--19--|--21----22------(22)/----|
B|-------------------------------|-------------------------|
G|-------------------------------|--6-----7-------(7)/----o|
D|-----4>( 6)------/6---7---9---|------------------------o|
A|-------------------------------|-------------------------|
E|-------------------------------|-------------------------|

2.|-----------------------------|
~~~~~~ ~~~~~~
E|----14>(16)-------17--19------|--21--------22----(22)------------|
B|------------------------------|-----------------------------/10--|
G|------------------2---4-------|--6---------7-----(7)--------/11--|
D|-----4>( 6)-------------------|----------------------------------|
A|------------------------------|----------------------------------|
E|------------------------------|----------------------------------|

~~~~~~~~~~ ~~~~~~~~~~~~~~
E|---------------------------------|
B|--(10)-----------14--------------|
G|--(11)-----------14--------------|
D|---------------------------------|
A|---------------------------------|
E|---------------------------------|

All taps indicated with a T are with the edge of your pick

T P P T P P P T P T P P P T P T P P P
E|--0---11--7--6---11--7--6--0---11--6---11--6--4--0---11--6---11--6--4--0--
B|--------------------------------------------------------------------------
G|--------------------------------------------------------------------------
D|--------------------------------------------------------------------------
A|--------------------------------------------------------------------------
E|--------------------------------------------------------------------------

T P T P P P T P T P P P T P T P P P
E--11--6---11--6--4--0--|----0---14--8---14--8--7--0---14--8---14--8--7--0--
B-----------------------|---------------------------------------------------
G-----------------------|---------------------------------------------------
D-----------------------|---------------------------------------------------
A-----------------------|---------------------------------------------------
E-----------------------|---------------------------------------------------

T P T P P P T P T P P P
E--14--8---14--8--7--0---14--8---14--8--7--0--|
B---------------------------------------------|
G---------------------------------------------|
D---------------------------------------------|
A---------------------------------------------|
E---------------------------------------------|

T P T P P P T P T P P P
E|---0---16--11---16--11--9--0---16--11---16--11--9--0--
B|------------------------------------------------------
G|------------------------------------------------------
D|------------------------------------------------------
A|------------------------------------------------------
E|------------------------------------------------------

T P T P P P T P T P P P
E--16--11---16--11--9--0---16--11---16--11--9--0--|
B-------------------------------------------------|
G-------------------------------------------------|
D-------------------------------------------------|
A-------------------------------------------------|
E-------------------------------------------------|

T P T P P P T P T P P P
E|---0---17--12---17--12--10--0---17--12---17--12--10--0--
B|--------------------------------------------------------
G|--------------------------------------------------------
D|--------------------------------------------------------
A|--------------------------------------------------------
E|--------------------------------------------------------

T P T P P P T P T P P P
E--17--12---17--12--10--0---17--12---17--12--10--0--|
B---------------------------------------------------|
G---------------------------------------------------|
D---------------------------------------------------|
A---------------------------------------------------|
E---------------------------------------------------|

T P T P P P T P T P P P
E|---0---18--14---18--14--12--0---18--14---18--14--12--0--
B|--------------------------------------------------------
G|--------------------------------------------------------
D|--------------------------------------------------------
A|--------------------------------------------------------
E|--------------------------------------------------------

T P T P P P T P T P P P
E--18--14---18--14--12--0---18--14---18--14--12--0--|
B---------------------------------------------------|
G---------------------------------------------------|
D---------------------------------------------------|
A---------------------------------------------------|
E---------------------------------------------------|

H T P T P P P T P T P P P
E|---0--14---19--15---19--15--14--0---19--15---19--15--14--0--
B|------------------------------------------------------------
G|------------------------------------------------------------
D|------------------------------------------------------------
A|------------------------------------------------------------
E|------------------------------------------------------------

T P T P P P T P T P P P
E--19--15---19--15--14--0---19--15---19--15--14--0--|
B---------------------------------------------------|
G---------------------------------------------------|
D---------------------------------------------------|
A---------------------------------------------------|
E---------------------------------------------------|

H H T P T P P P T P T P P P
E|---0--16--18---21--18---21--18--16--0---21--18---21--18--16--0--
B|----------------------------------------------------------------
G|----------------------------------------------------------------
D|----------------------------------------------------------------
A|----------------------------------------------------------------
E|----------------------------------------------------------------

T P T P P P T P T P P P
E--21--18---21--18--16--0---21--18---21--18--16--0--|
B---------------------------------------------------|
G---------------------------------------------------|
D---------------------------------------------------|
A---------------------------------------------------|
E---------------------------------------------------|


E|---17--19---22--19---22--19--17--0---22--19---22--19--17--0--
B|-------------------------------------------------------------
G|-------------------------------------------------------------
D|-------------------------------------------------------------
A|-------------------------------------------------------------
E|-------------------------------------------------------------


E--22--19---22--19--17--0---22--19---22--19--17--0--|
B---------------------------------------------------|
G---------------------------------------------------|
D---------------------------------------------------|
A---------------------------------------------------|
E---------------------------------------------------|

P sh----]
E|----------------------------|-------------------------------------------|
B|----------------------------|----------------------8-----7--5-----------|
G|----------------------------|------------9---7--5-----7--------7/9/7/9--|
D|-------------8---6-------9--|--8---6/5----------------------------------|
A|--------/4-----------6------|-------------------------------------------|
E|----------------------------|-------------------------------------------|


E|----------12--------11--------------14------12--------|
B|----/9--------11--------12--11----------12--------12--|
Добавлено: 27.02.2014
Другие материалы по этой песне:

Страница создана 16.05.2012
http://primanota.ru/joe-satriani/not-of-this-earth-chords.htm
Привет, Гость.
Предлагаем пройти революционный курс по гитаре.
Подарок от PrimaNota.Ru, забирай!