PrimaNota.ru - самый крупный в мире бесплатный архив песенных текстов, аккордов, табулатур и нот


Joe Satriani - Just Like Lightning - таба, видео

Регистрация Запомнить меня
Войти через:  Facebook Google Twitter Vk Yandex Mail.ru

Joe Satriani - Just Like Lightning - таба, видео

Печатать
Просмотров: 253
Joe Satriani
Just like Lightnin'
Super Colossal

intro
-----------------------------------------------------------------------|
-----------------------------------------------------------------------|
---5p3p0-5p3p0--------0-------------5p3p0-5p3p0-------0----------------|
----------------5p3p0----3-5-5-3-5--------------5p3p0----3-5-----------|
-------------------------------------------------------------3h5p3s1---|
---------------------------------------------------------------------3-|


repeat twice
---------------------------------------------------------------|
---------------------------------------------------------------|
5-7-8-9---12-14-15-17--19-17-20-19  on 2nd end play19-17-20-22-|b
---------------------------------------------------------------|
---------------------------------------------------------------|
---------------------------------------------------------------|

repeat intro 4 times

with wah wah
--------------------|
-10-----------------|
----10-7-5h7--------|
--------------------|
--------------------|
--------------------|

and im not sure how the solo goes yet
Добавлено: 26.07.2012
Другие материалы по этой песне:

Страница создана 29.04.2012
http://primanota.ru/joe-satriani/just-like-lightning-chords.htm
Привет, Гость.
Предлагаем пройти революционный курс по гитаре.
Подарок от PrimaNota.Ru, забирай!