PrimaNota.ru - самый крупный в мире бесплатный архив песенных текстов, аккордов, табулатур и нот


Joe Satriani - Ice - аккорды и текст, видео

Регистрация Запомнить меня
Войти через:  Facebook Google Twitter Vk Yandex Mail.ru

Joe Satriani - Ice - аккорды и текст, видео

Печатать
Просмотров: 92
Ice
Joe Satriani
p.m.................................
E|--------------------------------------------------|
B|--------------------------------------------------|
G|--4--3--------------------------------------------|
D|--2--4--6-6---------------------------------------|
A|--------4-4--4--4--4--4--4-4---4----4--4--4--4--4-|
E|-----------------------------7--------------------|

lead guitar (w/dist. & envelope filter device)
Rhy. fig 1 (play 2x)
E|-------------------------------------------------|
B|----------------------------------11b12r11--9----|
G|-----9--11b13r11--9-----------9---11b12r11--9----|
D|--11----------------11-----11-----------------11-|
A|-------------------------------------------------|
E|-------------------------------------------------|

Rhy. fig 2 (play 2x)
E|-----------------------------------------|
B|-----------------------------------------|
G|-----------------------------------------|
D|-----2--4p2--4b6----------------2--4p2---|
A|---4--------------------------4--------4-|
E|-----------------------------------------|

Rhy. fig 3 (This is played by 3 gtrs, this is just the lead notes)
E|-----------------------------------12--14b16r14-|
B|-----12--14b16r14--12-----------14--------------|
G|--13------------------13------------------------|
D|------------------------------------------------|
A|------------------------------------------------|
E|------------------------------------------------|
(let sustain)
E|----12--14b16r14--14------------------16--18b20-|
B|-14-------------------12-----------17-----------|
G|--------------------------------16--------------|
D|------------------------------------------------|
A|------------------------------------------------|
E|------------------------------------------------|

E|----12--14b16r14--12-----------12--14b16r14--12-----|
B|-14-------------------14----14-------------------14-|
G|----------------------------------------------------|
D|----------------------------------------------------|
A|----------------------------------------------------|
E|----------------------------------------------------|

Guitar solo 1
E|--------------------------------------------------------|
B|-11/14--14p10h11h14-14p11p10h14p10h11h14p11p10h14p10h11-|
G|--------------------------------------------------------|
D|--------------------------------------------------------|
A|--------------------------------------------------------|
E|--------------------------------------------------------|

E|-----------------------------------------------------------|
B|-p10----------------------10h11h13p11p10h11h13h14p13p11/10-|
G|-----13p10h11h13p10h11h13----------------------------------|
D|-----------------------------------------------------------|
A|-----------------------------------------------------------|
E|-----------------------------------------------------------|

E|--------------------------------------------------|
B|-------13-10h11h13p11p10h11h13/14p13p11-13h14--16-|
G|-11p10--------------------------------------------|
D|--------------------------------------------------|
A|--------------------------------------------------|
E|--------------------------------------------------|
t
E|-13h14h16p14p13h14h16-18p16p14p13h14h16p14p13/11h13h14p11-|
B|----------------------------------------------------------|
G|----------------------------------------------------------|
D|----------------------------------------------------------|
A|----------------------------------------------------------|
E|----------------------------------------------------------|

E|-------------------------11h14-11-----------------------------|
B|-14p13p11/10/11h14p13h14-----------14p9h11h14/13p9h11h13p11p9-|
G|--------------------------------------------------------------|
D|--------------------------------------------------------------|
A|--------------------------------------------------------------|
E|--------------------------------------------------------------|

E|-------------------------------------------------------|
B|-------------------------------------------------------|
G|-13-11h13p11p10/8--10h11------8-x/8--10h11p10p8--12--8-|
D|--------------------------10---------------------------|
A|-------------------------------------------------------|
E|-------------------------------------------------------|

E|-------------------------------------------------------------|
B|-------------------------------------------------------------|
G|-11h13p11p8--11p8--10h11p10p8--------------------------------|
D|--------------------------------11p10p8p6--8h10p8p6p4--4h6h8-|
A|-------------------------------------------------------------|
E|-------------------------------------------------------------|

E|-------------------------------------------------------------|
B|----------------------------------------------------------19-| (Pull up wammey
G|------------------------3h5h6p5p3----------------------------|   then release)
D|-4/3-h4h6p4p3--6p4h4h6-------------6p3h4h6-------------------|
A|--------------------------------------------6--4b6--4b6------|
E|-------------------------------------------------------------|

E|----------------------------------------------------x/-----------|
B|----------------------------------------------------x/Pick Slide-|
G|----------------------------------------------------x/-----------|
D|-----------------------------------------------------------------|
A|-----------------------------------------------------------------|
E|--2-(Pull up then depress as far as possible)--------------------|
Guitar Solo 2, with wah wah in toe position
E|-7-7---------7---------7----------7---------7--------|
B|-----10p7----- 10p7------10p7-10----10p7------10p7---|
G|----------9---------9--------------------9---------9-|
D|-----------------------------------------------------|
A|-----------------------------------------------------|
E|-----------------------------------------------------|

E|-7--------------------------------------------------|
B|---10p7----7----------------------------------------|
G|--------9----9b11r9-p7------------------------------|
D|------------------------7---------------------------|
A|--------------------------9p7-9b12----x/-Pick Slide-|
E|--------------------------------------x/------------|

E|-------------------------------------------------------------
B|-19h21-pull up wammey--keep doing this sort of stuff for a while
G|--|
D|--|
A|--|
E|--|

E|------------------7----------7------------------------------|
B|-x/------------10---10p7-10----10p7------10p7h9h10p9p7----9-|
G|-x/Pick Slide-----------------------10p0---------------10---|
D|-x/---------------------------------------------------------|
A|------------------------------------------------------------|
E|------------------------------------------------------------|

E|--------------------------------------------------------|
B|--------------------------------------------------------|
G|--7/6h7h9p7p6/4--6h7p6p4--------------------------------|
D|--------------------------7p6p4h6-p4-7p6---x/-----------|
A|-------------------------------------------x/Pick Slide-|
E|-------------------------------------------x/-----------|

E|--19-pull-up-on-wammey-|
B|-----------------------|
G|-----------------------|
D|-----------------------|
A|-----------------------|
E|-----------------------|
hmm...then joe does some crazy wammey stuff, i find it works
if you just pick an open g and push down on the bar, and then slide
to some other notes while still using the wammey.

Then repeat Rhy. Fig 1 2x

Rhy. Fig 2 2x

Rhy. Fig 3...but let the rythym guy do that so you can have fun doing this...

Outro
E|------------------------------------------------------|
B|------------------------------------------------------|
G|-----------------------------------------9b10---------|
D|------11--9--11----9-11-9-------------11---------x----|
A|--11------------11-----------------11---------10---10-|
E|------------------------------------------------------|

E|-12b14-12b14-9-12-9-----------------------|
B|-12b14--------------9-12------------------|
G|-------------------------11b13r11p9-------|
D|------------------------------------11-11-|
A|------------------------------------------|
E|------------------------------------------|
Добавлено: 22.12.2013
Другие материалы по этой песне:
  • Аккорды и текст

Страница создана 22.12.2013
http://primanota.ru/joe-satriani/ice-chords.htm
Привет, Гость.
Предлагаем пройти революционный курс по гитаре.
Подарок от PrimaNota.Ru, забирай!