PrimaNota.ru - самый крупный в мире бесплатный архив песенных текстов, аккордов, табулатур и нот


Joe Satriani - Echo - аккорды и текст, таба, бас-таба, видео

Регистрация Запомнить меня
Войти через:  Facebook Google Twitter Vk Yandex Mail.ru

Joe Satriani - Echo - аккорды и текст, таба, бас-таба, видео

Печатать
Просмотров: 284
Авторы музыки: Joe Satriani

Echo
Joe Satriani
-||--------------------------|---------------------------|--------------------
-||---11-11-11-11h13---------|----11-11-11-11h13---------|--------------------
-||10----------------10-x-10-|-10----------------10-x-10-|-x-12h13-12-v8-10---
-||--------------------------|---------------------------|--------------------
-||--------------------------|---------------------------|--------------------
-||--------------------------|---------------------------|--------------------


------|------------------------||-------------|-------------------------------
-9----|------------------11----||-------------|----------------16----16-17----
---10-|-x-12h13-12-v8-10----10-||-/8-6-8-6----|----17-17-15-13--b-14--b-------
------|------------------------||----------v8-|-15--b-------------------------
------|------------------------||-------------|-------------------------------
------|------------------------||-------------|-------------------------------


--------------------------------------------------------------------------|---
-15-15h17--15-13-v13-15-v15--13-11-13-13-13--13-11-11-13-v13--11----11/13-|---
--------v------------------------------b--b----------------------10-------|---
--------------------------------------------------------------------------|---
--------------------------------------------------------------------------|---
--------------------------------------------------------------------------|---
guitar solo pm-----

-|-------6h8h9p8p6---------------------------------------------------|--------
-|-6h8h9-----------9p8p6---------------------------------------------|--------
-|-----------------------8p6p5h6h9p6p5---5h6p5---5-------------------|--------
-|-------------------------------------8-------8---8-6-5-/3----------|---3-5--
-|----------------------------------------------------------v4-4p3p1-|-4------
-|-------------------------------------------------------------------|--------
--------- pm----------------------

----------------|-----------------------|-----------------------------------|-
----------------|-----------------------|-----8h9----9p8--------------------|-
----------------|-----------------------|-v10-----v8-----10-----------------|-
-6-6-3-5-1-v3-5-|-5h6h8-8/10\8-6-6h8-v6-|-------------------/10-\8-v6-------|-
----------------|-----------------------|-----------------------------6h8v6-|-
----------------|-----------------------|-----------------------------------|-


-|--------------------------|-------v13p11-8h9h11p9p8p6h8h9p8p6---------------
-|--------------------------|-16-16-----------------------------9p8p6---------
-|-----13-15-13----------13-|-rb--b-----------------------------------8-------
-|-/15-------rb-15p13h15--r-|-------------------------------------------------
-|--------------------------|-------------------------------------------------
-|--------------------------|-------------------------------------------------


------------------------------||---------||-----------------------------------
-6h7p6------------------------||---------||-----------------------------------
-------8p6p5---5h6p5----------||---------||-----------------------------------
-------------8-------8p6p5----||5h6p5p3p-||-----------------------------------
---------------------------v8-||--------6||-------1h3h4p3p1-----------1h3h4h--
------------------------------||---------||-1h3h4-----------4p3p1h3h4---------


------------------------------------------------------------------------------
-------------------------------------------------------4h6h8p6p4-----------4--
-------------------------------------3h5h6p5p3---3h5h6-----------6p5p3h5h6----
-------------------3h5h6p5p3---3h5h6-----------6------------------------------
-3h4h6p4p3---3h4h6-----------6------------------------------------------------
-----------6------------------------------------------------------------------


-----4h6h8p6p4-----------|-------------------|--------------------------------
-6h8-----------8p6p4h6h8-|-18-17-14-------18-|-8p6----------------------------
-------------------------|--b-------17-15--b-|-----8p6------------------------
-------------------------|-------------------|---------8p6-8/10-8-6-5---5-6-8-
-------------------------|-------------------|------------------------8-------
-------------------------|-------------------|--------------------------------
bend string before picking

-------------------------|----------|-18---21--18-18p16----16-|-15-13-15-16--
-------------------------|----------|-rb---rb------rb----18--v-|-rb-----------
-------8----8----8p10-10-|----------|---------------------v----|--------------
-/8-10---10---10---------|-/6-8p6---|--------------------------|--------------
-------------------------|--------8-|--------------------------|--------------
-------------------------|--------v-|--------------------------|--------------


-15-13----------------|-------------------------------------|-----------------
-------16-15-13-15-16-|-6h8h9p8p6---------------------------|-----------------
----------------------|-----------6p5h6---------------------|-----------------
----------------------|-----------------10p8h10-8p6h8-6p5---|-----------------
----------------------|-----------------------------------8-|-6h8-8--6h8-8----
----------------------|-----------------------------------v-|-----------------
then play the first part.

-------|----------------------------------------------------------------------
-------|----------------------------------------------------------------------
-------|----------------------------------------------------------------------
-6-5---|----------------------------------------------------------------------
-----8-|----------------------------------------------------------------------
-------|----------------------------------------------------------------------
Добавлено: 18.08.2013
Другие материалы по этой песне:

Страница создана 01.03.2012
http://primanota.ru/joe-satriani/echo-chords.htm
Привет, Гость.
Предлагаем пройти революционный курс по гитаре.
Подарок от PrimaNota.Ru, забирай!