PrimaNota.ru - самый крупный в мире бесплатный архив песенных текстов, аккордов, табулатур и нот


Joe Satriani - Crystal planet - аккорды и текст, таба, бас-таба, видео

Регистрация Запомнить меня
Войти через:  Facebook Google Twitter Vk Yandex Mail.ru

Joe Satriani - Crystal planet - аккорды и текст, таба, бас-таба, видео

Печатать
Просмотров: 249
Авторы музыки: Joe Satriani

Crystal planet
Joe Satriani
H P P H P
E|--2--3--2--0--2----2--3--0--2----3--5--|
B|--0-----------0----0--------0----0--0--|
G|---------------------------------------|
D|---------------------------------------|
A|---------------------------------------|
E|---------------------------------------|
 
E|--2--3--2--2--------5----------7--|
B|--0--------0-----3----------5-----|
G|----------------------------------|
D|------------------------/7--------|
A|----------------------------------|
E|----------------------------------|


Next 4 bars played twice

H P P H P P
E|---------------------------------------------|
B|---------------------------------------------|
G|------------------------------------------2--|
D|--4--5--4--2---4----4--5--4--2---4----5---2--|
A|--2------------2----2------------2----2------|
E|---------------------------------------------|


H P P H P P
E|---------------------------------------------|
B|---------------------------------------------|
G|------------------------------------------2--|
D|--4--5--4--2---4----4--5--4--2---4----5---2--|
A|--2------------2----2------------2----2------|
E|---------------------------------------------|


H P P H P P
E|---------------------------------------------|
B|---------------------------------------------|
G|------------------------------------------2--|
D|--4--5--4--2---4----4--5--4--2---4----5---2--|
A|--2------------2----2------------2----2------|
E|---------------------------------------------|

H P P
E|----------------------------------|
B|----------------------------------|
G|----------------------------------|
D|--4--5--4--2---4----4/7--7--2--2--|
A|--2------------2----2/5--5--0--0--|
E|----------------------------------|


Harm.-------------------------------------------]
E|------------------------------------------------------|
B|------------------------------------------------------|
G|--X----X---X---X----X---X---X----X---X---X----X---X---|
D|--X----X---X---X----X---X---X----X---X---X----X---X---|
A|--12---12--12--12---12--12--12---12--12--12---12--12--|
E|------------------------------------------------------|


Harm.---------------------]
E|---------------------------------------------------|
B|---------------------------------------------------|
G|--X----X---X---X----X---X---X----------------------|
D|--X----X---X---X----X---X---X-----0----------------|
A|--12---12--12--12---12--12--12----0-----------0----|
E|--12-----------12-----------12----0----15/---------|


~~~~~~~~~~~~
E|------------------|-----------------------------|
B|--14>(15)--(15)---|---------14>(15)>(14)----12--|
G|------------------|-----------------------------|
D|------------------|-----------------------------|
A|------------------|-----------------------------|
E|------------------|-----------------------------|
^Re-pick bent note

~~~~~~ ~~~~~~~~~~~~
E|-------------------------|-------------------|
B|--14------12---12--------|---------------10--|
G|-------------------------|-----------11------|
D|-------------------------|-------------------|
A|-------------------------|-------------------|
E|-------------------------|-------------------|


~~~~~~~~~~~~ P
E|---------------------|--------------------------|
B|--10/12---12---12----|--------------------------|
G|---------------------|---------11>(12)>(11)--9--|
D|---------------------|--------------------------|
A|---------------------|--------------------------|
E|---------------------|--------------------------|

~~~~~~ ~~~~~~~~~~~~
E|--------------------|----------|
B|--------------------|----------|
G|--9/7--------7---7--|--(7)-----|
D|--------------------|----------|
A|--------------------|----------|
E|--------------------|----------|


~~~~~~~~~~~~
E|------------------|-----------------------------|
B|--14>(15)--(15)---|---------14>(15)>(14)----14--|
G|------------------|-----------------------------|
D|------------------|-----------------------------|
A|------------------|-----------------------------|
E|------------------|-----------------------------|
^Re-pick bent note

~~~ ~~~
E|--------------14--|--(14)>(15)>(14)-------------|
B|--14----12--------|-------------------------10--|
G|------------------|--------------------11-------|
D|------------------|-----------------------------|
A|------------------|-----------------------------|
E|------------------|-----------------------------|
^Lil bend on the fretted note:)

H ~~~~~~~~~~~~~~
E|--------------------|--(12)---------------------|
B|--12---10--12-------|-------------14>(15)>(14)--|
G|--------------------|---------------------------|
D|--------------------|---------------------------|
A|--------------------|---------------------------|
E|--------------------|---------------------------|

~~~~~~ ~~~~~~
E|---------------------|---------------------|
B|--12-----------------|---------------------|
G|---------------------|---------------------|
D|-----------------/7--|--7--------------7/--|
A|---------------------|---------------------|
E|---------------------|---------------------|

~~~~~ ~~~~~~
E|--------------|---------------------------------|
B|--------------|--13>(15)----------13>(15)>(13)--|
G|--11------12--|---------------------------------|
D|--------------|---------------------------------|
A|--------------|---------------------------------|
E|--------------|---------------------------------|


~~~~~ ~~~~~~
E|--------------|--13>(14)------13>(14)>(13)-----|
B|--11------12--|--------------------------------|
G|--------------|--------------------------------|
D|--------------|--------------------------------|
A|--------------|--------------------------------|
E|--------------|--------------------------------|

~~~~~~
E|--(13)------14--|--20>(21)------20>(21)--|
B|----------------|------------------------|
G|----------------|------------------------|
D|----------------|------------------------|
A|----------------|------------------------|
E|----------------|------------------------|

~~~~~~~ ~~~~~~
E|--20--------20>(21)--|--(21)----------|
B|---------------------|----------------|
G|---------------------|----------------|
D|---------------------|----------------|
A|---------------------|----------------|
E|---------------------|----------------|
^Re-pick this bent note

E|--21>(22)----|--(21)------21>(22)>(21)---19--|
B|-------------|-------------------------------|
G|-------------|-------------------------------|
D|-------------|-------------------------------|
A|-------------|-------------------------------|
E|-------------|-------------------------------|


~~~~~~ ~~~~~~~~~~~~~~~~~~~~~~~
E|--21------19----19--------|--(19)--------------------|
B|--------------------------|----------------19----22--|
G|--------------------------|--------------------------|
D|--------------------------|--------------------------|
A|--------------------------|--------------------------|
E|--------------------------|--------------------------|

~~~~~~~~~~~~~
E|--19-----------------|-----------21----21>(22)>(21)--|
B|--------22>(24)------|--(22)-------------------------|
G|---------------------|-------------------------------|
D|---------------------|-------------------------------|
A|---------------------|-------------------------------|
E|---------------------|-------------------------------|


E|--19------|--(19)-----------------|
B|----------|-----------------------|
G|----------|-----------------------|
D|----------|------------/9----9----|
A|----------|-----------------------|
E|----------|-----------------------|


this bit should be picked but its easier to hammer on

Repeat next two bars three times
H H H H H H H H H H H
E|--------------------------------------------------------|
B|--------------------------------------------------------|
G|--------------------------------------------------------|
D|--------------------------------------------------------|
A|--------14--------14--------14--------14--------17------|
E|--0--12-----0--12-----0--12-----0--12-----0--15-----15--|


H H H H H H H H H H H
E|--------------------------------------------------------|
B|--------------------------------------------------------|
G|--------------------------------------------------------|
D|--------------------------------------------------------|
A|--------14--------14--------14--------14--------12------|
E|--0--12-----0--12-----0--12-----0--12-----0--10-----10--|


H H H H H H H H H H H
E|--------------------------------------------------------|
B|--------------------------------------------------------|
G|--------------------------------------------------------|
D|--------------------------------------------------------|
A|--------14--------14--------14--------14--------17------|
E|--0--12-----0--12-----0--12-----0--12-----0--15-----15--|


H H H H H H
E|--------------------------------------------------|
B|--------------------------------------------------|
G|--------------------------------------------------|
D|--------------------------------------------------|
A|--------14--------14--------14/-------------------|
E|--0--12-----0--12-----0--12----------X/-----------|
^Pick slide


sh ~~~~~~~~~~~~~~~
E|------------------|-------------------------------|
B|-------15---------|--(15)----------------15>(16)--|
G|-------14>(15)----|--(14)-------------------------|
D|------------------|-------------------------------|
A|------------------|-------------------------------|
E|--0---------------|-------------------------------|


P P ~~~~~~
E|--12----------------------------------------------------|
B|------12--15--12------12--------------------------------|
G|------------------14------15--14--12------14------12----|
D|--------------------------------------14------14--------|
A|--------------------------------------------------------|
E|--------------------------------------------------------|


~~~~~~ P ~~~~~~ P
E|-----------------------------------------------------------|
B|-----------------------------------------------------------|
G|--(12)---------------------------------------------12------|
D|-----------12--14--12------12------14--12--14--12------14--|
A|-----------------------14----------------------------------|
E|-----------------------------------------------------------|


sh
E|-----------------------------------------------|
B|-----------15----15---------15-------------15--|
G|--14>(15)--------14>(15)--------14>(15)----14--|
D|-----------------------------------------------|
A|-----------------------------------------------|
E|-----------------------------------------------|


~~~~~~~~
E|------------------------12------15>(17)>(18)--|
B|--(15)---------15>(17)------12----------------|
G|--(14)----------------------------------------|
D|----------------------------------------------|
A|----------------------------------------------|
E|----------------------------------------------|


H P
E|----15>(16)----12-----------12------12--14--12------|
B|-------------------15>(16)------15--------------15--|
G|----------------------------------------------------|
D|----------------------------------------------------|
A|----------------------------------------------------|
E|----------------------------------------------------|


P P P H ~~~~~~
E|--12------------------------------------------------------|
B|------12--15--12------------------------------------------|
G|------------------14------15--14--12--14-------------/16--|
D|----------------------14-----------------------13---------|
A|----------------------------------------------------------|
E|----------------------------------------------------------|


~~~~~~
E|------17>(19)------(17)>18----|--17------17----17/------18--19--|
B|--15--------------------------|---------------------------------|
G|------------------------------|---------------------------------|
D|------------------------------|---------------------------------|
A|------------------------------|---------------------------------|
E|------------------------------|---------------------------------|
~prebent 17th fret note


P P P P H P P
E|--18--15----19--15--18----19--15--18--15------15--18--19--18--15------|
B|------------------------------------------19----------------------19--|
G|----------------------------------------------------------------------|
D|----------------------------------------------------------------------|
A|----------------------------------------------------------------------|
E|----------------------------------------------------------------------|


P
E|--15-------------------------------------------|
B|------19--17--15--19--17/16----16--17/----/15--|
G|-----------------------------------------------|
D|-----------------------------------------------|
A|-----------------------------------------------|
E|-----------------------------------------------|


~~~~~~ ~~~~~~
E|--12--------------12--------------12------|
B|------12--15----------12--15----------12--|
G|------------------------------------------|
D|------------------------------------------|
A|------------------------------------------|
E|------------------------------------------|


~~~~ P
E|-----------12---------------12------------12------12--15--|
B|--15>(17)------12--15>(17)------12--15--------15----------|
G|----------------------------------------------------------|
D|----------------------------------------------------------|
A|----------------------------------------------------------|
E|----------------------------------------------------------|


P P P ~~~~~~
E|--12------12------------------------------------------------------|
B|------15------12--15--12------12----------------------------------|
G|--------------------------14------15--14--12------14------12------|
D|----------------------------------------------14------14----------|
A|------------------------------------------------------------------|
E|------------------------------------------------------------------|

P Tap
E|--------------------------------------------------------------------|
B|--------------------------------------------------------------------|
G|-----------------------------------------------------------16-(14)--|
D|--14--12------------------------------------------------------------|
A|----------14/12--10------12------10>(10.5)--------------------------|
E|---------------------12------12-------------12--10--12--0-----------|

This tap is done by fretting the 14th fret G string whilst tapping the
pick on the 16th fret as fast as you can, kinda like vinrating your pick
on the fretboard! Another couple follow:

Tao Tap Tap
E|-----------------------------|--------------------------------------|
B|-----------------------------|--------------------------------0-----|
G|--(16)--------------17-(14)--|--(17)------16-(14)----17-(14)--------|
D|-----------------------------|--------------------------------------|
A|-----------------------------|--------------------------------------|
E|-----------------------------|-----------------------------------X/-|
^ Tapping continued ^ continued Pick Slide


sh
E|------16>(17)>(16)--------------------------|
B|----------------------17>(18)>(17)----------|
G|----------------------------------------16--|
D|--------------------------------------------|
A|--------------------------------------------|
E|--------------------------------------------|


~~~~~~~ ~~~~~~~ ~~~~~~~
E|---------------------------|------------------------12-------------------|
B|---------------------------|----------------------------12--12-----------|
G|--17-------16/13-------14--|--12-------14--14>(16)--------------14>(16)--|
D|---------------------------|---------------------------------------------|
A|---------------------------|---------------------------------------------|
E|---------------------------|---------------------------------------------|



E|------12------12--12--------12------12-----------|
B|--12------15----------15--------15------15>(17)--|
G|-------------------------------------------------|
D|-------------------------------------------------|
A|-------------------------------------------------|
E|-------------------------------------------------|


P H P P P
E|--12--------------------------------------12-----------------12---------|
B|-----15--12--15>(17)--12--15--12--15>(17)----15--12--15>(17)----15--12--|
G|------------------------------------------------------------------------|
D|------------------------------------------------------------------------|
A|------------------------------------------------------------------------|
E|------------------------------------------------------------------------|


~~~~~~~~~~~~~~~~~~~~~~~~~
E|---------------------------------|
B|--15>(17)---------(17)-----------|
G|---------------------------------|
D|---------------------------------|
A|---------------------------------|
E|---------------------------------|
^ Repick

The next bit is a repeat of some off the earlier stuff

Repeat next two bars eight times

H H H H H H H H H H H
E|--------14--------14--------14--------14--------17------|
B|--0--12-----0--12-----0--12-----0--12-----0--15-----15--|
G|--------------------------------------------------------|
D|--------------------------------------------------------|
A|--------------------------------------------------------|
E|--------------------------------------------------------|


H H H H H H H H H H H
E|--------14--------14--------14--------14--------12------|
B|--0--12-----0--12-----0--12-----0--12-----0--10-----10--|
G|--------------------------------------------------------|
D|--------------------------------------------------------|
A|--------------------------------------------------------|
E|--------------------------------------------------------|

P P P P P P P P P P
E|-----------------------------------------------------------------|
B|--15--14--0---17--15--0---15--14--0---14--12--0---14--0---15--0--|
G|-----------------------------------------------------------------|
D|-----------------------------------------------------------------|
A|-----------------------------------------------------------------|
E|-----------------------------------------------------------------|

P P P P P P P P P P
E|----------------------------------------------------------------|
B|--17--15--0---15--14--0---14--12--0---14--12--0---12--0--14--0--|
G|----------------------------------------------------------------|
D|----------------------------------------------------------------|
A|----------------------------------------------------------------|
E|----------------------------------------------------------------|

H P H P P P P P P P
E|------------------------------------------------------------------|
B|--12--14--0---14--15--0---17--15--0---15--14--0---14--12/10---12--|
G|------------------------------------------------------------------|
D|------------------------------------------------------------------|
A|------------------------------------------------------------------|
E|------------------------------------------------------------------|

p p H P H P P P P P
E|-----------------------------------------------------------------|
B|--10--0---12--14--0---12--14--0---12--0---10--0---12--0---10--0--|
G|-----------------------------------------------------------------|
D|-----------------------------------------------------------------|
A|-----------------------------------------------------------------|
E|-----------------------------------------------------------------|

P P P P P P H P P P
E|-----------------------------------------------------------------|
B|--12--10--0---14--12--0---15--14--0---15--17--0---15--0---14--0--|
G|-----------------------------------------------------------------|
A|-----------------------------------------------------------------|
E|-----------------------------------------------------------------|

P P P P P P P P P P
E|-----------------------------------------------------------------|
B|--15--14--0---14--12--0---12--10--0---15--14--0---17--0---14--0--|
G|-----------------------------------------------------------------|
D|-----------------------------------------------------------------|
A|-----------------------------------------------------------------|
E|-----------------------------------------------------------------|

p p P P P P P P P
E|-----------------------------------------------------------------|
B|--12--0---10--0---12--10--0---12--0---10--0---12--10--0---10--0--|
G|-----------------------------------------------------------------|
D|-----------------------------------------------------------------|
A|-----------------------------------------------------------------|
E|-----------------------------------------------------------------|

P P P P P P P P P
E|-----------------------------------------------------------------|
B|--12--0---10--0---12--10--0---12--0---10--0---12--10--0---17--0--|
G|-----------------------------------------------------------------|
D|-----------------------------------------------------------------|
Добавлено: 16.10.2013
Другие материалы по этой песне:

Страница создана 01.03.2012
http://primanota.ru/joe-satriani/crystal-planet-chords.htm
Привет, Гость.
Предлагаем пройти революционный курс по гитаре.
Подарок от PrimaNota.Ru, забирай!