PrimaNota.ru - самый крупный в мире бесплатный архив песенных текстов, аккордов, табулатур и нот


Joe Satriani - Crushing Day - аккорды и текст, таба, видео

Регистрация Запомнить меня
Войти через:  Facebook Google Twitter Vk Yandex Mail.ru

Joe Satriani - Crushing Day - аккорды и текст, таба, видео

Печатать
Просмотров: 292
Crushing Day
Joe Satriani
Gtr 1

C5 C(b5)
E||----------------------------||----------------------------||
B||----------------------------||----------------------------||
G||--5--------5--------------||--5--------5--------------||
D||--5--------5--------------||--4--------4--------------||
A||---3--3--3--3--3--3--3--3---||---3--3--3--3--3--3--3--3---||
E||----------------------------||----------------------------||


C5 C(b5)
----------------------------||--------------------------|
----------------------------||--------------------------|
--5--------5--------------||--5--------5--------------|
--5--------5--------------||--4--------4--------------|
---3--3--3--3--3--3--3--3---||--3--3--3--3--3--3--3--3--|
----------------------------||--------------------------|


C5
--------------------------|--------------------------|
--------------------------|--------------------------|
--5-----------------------|--5--------5--------------|
--4-----------------------|--5--------5--------------|
--3--------------0--1--2--|--3--3--3--3--3--3--3--3--|
-----0--1--2--3-----------|--------------------------|


C5 D5
--------------------------|--------------------------|
--------------------------|--------------------------|
--5--------5--------------|--7--------7--------------|
--5--------5--------------|--7--------7--------------|
--3--3--3--3--3--3--3--3--|--5--5--5--5--5--5--5--5--|
--------------------------|--------------------------|


A5 C5
--------------------------|--------------------------|
--------------------------|--------------------------|
--7--------7-----------2--|--5--------5--------------|
--7--------7-----------2--|--5--------5--------------|
--5--5--5--5--5--5--5--0--|--3--3--3--3--3--3--3--3--|
--------------------------|--------------------------|


C5 D5
--------------------------|--------------------------|
--------------------------|--------------------------|
--5--------5--------------|--7--------7--------------|
--5--------5--------------|--7--------7--------------|
--3--3--3--3--3--3--3--3--|--5--5--5--5--5--5--5--5--|
--------------------------|--------------------------|


A5 C5
--------------------------|--------------------------|
--------------------------|--------------------------|
--7--------7-----------2--|--5--------5--------------|
--7--------7-----------2--|--5--------5--------------|
--5--5--5--5--5--5--5--0--|--3--3--3--3--3--3--3--3--|
--------------------------|--------------------------|


C5 D5
--------------------------|--------------------------|
--------------------------|--------------------------|
--5--------5--------------|--7--------7--------------|
--5--------5--------------|--7--------7--------------|
--3--3--3--3--3--3--3--3--|--5--5--5--5--5--5--5--5--|
--------------------------|--------------------------|


A5 Gm
--------------------------|------------------------------|
--------------------------|--11----------11----11--------|
--7--------7-----------2--|--12----------12----12--------|
--7--------7-----------2--|--12----------12----12--------|
--5--5--5--5--5--5--5--0--|--10--10--10--10----10--x--6--|
--------------------------|------------------------------|


Eb F
-------------------------|----------------------------|
--8--------8----8--------|--10--------10----10--------|
--8--------8----8--------|--10--------10----10--------|
--8--------8----8--------|--10--------10----10--------|
--6--6--6--6----6--x--8--|--8---8--8--8-----8---x--8--|
-------------------------|----------------------------|


Gm
-----------------------------|------------------------------|
--10--------10----10---------|--11----------11----11--------|
--10--------10----10---------|--12----------12----12--------|
--10--------10----10---------|--12----------12----12--------|
--8---8--8--8-----8---x--10--|--10--10--10--10----10--x--6--|
-----------------------------|------------------------------|


Eb F
-------------------------|----------------------------|
--8--------8----8--------|--10--------10----10--------|
--8--------8----8--------|--10--------10----10--------|
--8--------8----8--------|--10--------10----10--------|
--6--6--6--6----6--x--8--|--8---8--8--8-----8---x--8--|
-------------------------|----------------------------|


C5
----------------------------||----------------------------||
--10--------10----10--------||----------------------------||
--10--------10----10--------||--5--------5--------------||
--10--------10----10--------||--5--------5--------------||
--8---8--8--8-----8---x--3--||---3--3--3--3--3--3--3--3---||
----------------------------||----------------------------||


C(b5) C(b5)
--------------------------|--------------------------|
--------------------------|--------------------------|
--5--------5--------------|--5--------5--------------|
--4--------4--------------|--4--------4--------------|
--3--3--3--3--3--3--3--3--|--3--3--3--3--3--3--3--3--|
--------------------------|--------------------------|


C5 C5
--------------------------|--------------------------|
--------------------------|--------------------------|
--5--------5--------------|--5--------5--------------|
--5--------5--------------|--5--------5--------------|
--3--3--3--3--3--3--3--3--|--3--3--3--3--3--3--3--3--|
--------------------------|--------------------------|


C(b5)
--------------------------|--------------------------|
--------------------------|--------------------------|
--5--------5--------------|--5-----------------------|
--4--------4--------------|--4-----------------------|
--3--3--3--3--3--3--3--3--|--3--------------0--1--2--|
--------------------------|-----0--1--2--3-----------|


C5
--------------------------|--------------------------|
--------------------------|--------------------------|
--5--------5--------------|--5--------5--------------|
--5--------5--------------|--5--------5--------------|
--3--3--3--3--3--3--3--3--|--3--3--3--3--3--3--3--3--|
--------------------------|--------------------------|


D5 A5
--------------------------|--------------------------|
--------------------------|--------------------------|
--7--------7--------------|--7--------7-----------2--|
--7--------7--------------|--7--------7-----------2--|
--5--5--5--5--5--5--5--5--|--5--5--5--5--5--5--5--0--|
--------------------------|--------------------------|


C5
--------------------------|--------------------------|
--------------------------|--------------------------|
--5--------5--------------|--5--------5--------------|
--5--------5--------------|--5--------5--------------|
--3--3--3--3--3--3--3--3--|--3--3--3--3--3--3--3--3--|
--------------------------|--------------------------|


D5 A5
--------------------------|--------------------------|
--------------------------|--------------------------|
--7--------7--------------|--7--------7-----------2--|
--7--------7--------------|--7--------7-----------2--|
--5--5--5--5--5--5--5--5--|--5--5--5--5--5--5--5--0--|
--------------------------|--------------------------|



C5
--------------------------|--------------------------|
--------------------------|--------------------------|
--5--------5--------------|--5--------5--------------|
--5--------5--------------|--5--------5--------------|
--3--3--3--3--3--3--3--3--|--3--3--3--3--3--3--3--3--|
--------------------------|--------------------------|



D5 A5
--------------------------|--------------------------|
--------------------------|--------------------------|
--7--------7--------------|--7--------7-----------2--|
--7--------7--------------|--7--------7-----------2--|
--5--5--5--5--5--5--5--5--|--5--5--5--5--5--5--5--0--|
--------------------------|--------------------------|


Gm Eb
------------------------------|-------------------------|
--11----------11----11--------|--8--------8----8--------|
--12----------12----12--------|--8--------8----8--------|
--12----------12----12--------|--8--------8----8--------|
--10--10--10--10----10--x--6--|--6--6--6--6----6--x--8--|
------------------------------|-------------------------|


F

----------------------------|-----------------------------|
--10--------10----10--------|--10--------10----10---------|
--10--------10----10--------|--10--------10----10---------|
--10--------10----10--------|--10--------10----10---------|
--8---8--8--8-----8---x--8--|--8---8--8--8-----8---x--10--|
----------------------------|-----------------------------|


Gm Eb Eb
------------------------------|-------------------------|
--11----------11----11-----8--|--8--------8----8--------|
--12----------12----12-----8--|--8--------8----8--------|
--12----------12----12-----8--|--8--------8----8--------|
--10--10--10--10----10--x--6--|--6--6--6--6----6--x--8--|
------------------------------|-------------------------|


F
----------------------------|----------------------------|
--10--------10----10--------|--10--------10----10--------|
--10--------10----10--------|--10--------10----10--------|
--10--------10----10--------|--10--------10----10--------|
--8---8--8--8-----8---x--8--|--8---8--8--8-----8---x--3--|
----------------------------|----------------------------|



Em C D Dsus4 D
-------------------------|--3--------3----3--------|-------------------------|
--8--------8----8--------|--5--------5----5--7-----|--8--------7----7--------|
--9--------9----9--------|--5--------5----5--7-----|--7--------7----7--------|
--9--------9----9--------|--5--------5----5--7-----|--7--------7----7--------|
--7--7--7--7----7--x--3--|--3--3--3--3----3--5--5--|--5--5--5--5----5--5--5--|
-------------------------|-------------------------|-------------------------|



Dsus2 D E Em C D
-------------------------|-------------------------|--3--------3----3--------|
--5--------7----7--------|--8--------8----8--------|--5--------5----5--7-----|
--7--------7----7--------|--9--------9----9--------|--5--------5----5--7-----|
--7--------7----7--------|--9--------9----9--------|--5--------5----5--7-----|
--5--5--5--5----5--x--7--|--7--7--7--7----7--x--3--|--3--3--3--3----3--5--5--|
-------------------------|-------------------------|-------------------------|


Dsus4 D Dsus2 D E
-------------------------|-------------------------|
--8--------7----7--------|--5--------7----7--------|
--7--------7----7--------|--7--------7----7--------|
--7--------7----7--------|--7--------7----7--------|
--5--5--5--5----5--5--5--|--5--5--5--5----5--x--x--|
-------------------------|-------------------------|


Gm Eb
------------------------------|-------------------------|
--11----------11----11--------|--8--------8----8--------|
--12----------12----12--------|--8--------8----8--------|
--12----------12----12--------|--8--------8----8--------|
--10--10--10--10----10--x--6--|--6--6--6--6----6--x--8--|
------------------------------|-------------------------|


F
----------------------------|----------------------------|
--10--------10----10--------|--10--------10----10--------|
--10--------10----10--------|--10--------10----10--------|
--10--------10----10--------|--10--------10----10--------|
--8---8--8--8-----8---x--8--|--8---8--8--8-----8---x--3--|
----------------------------|----------------------------|


C5
--------------------------|--------------------------|
--------------------------|--------------------------|
--5--------5--------------|--5--------5--------------|
--5--------5--------------|--5--------5--------------|
--3--3--3--3--3--3--3--3--|--3--3--3--3--3--3--3--3--|
--------------------------|--------------------------|


C(b5) C(b5)
--------------------------|--------------------------|
--------------------------|--------------------------|
--5--------5--------------|--5--------5--------------|
--4--------4--------------|--4--------4--------------|
--3--3--3--3--3--3--3--3--|--3--3--3--3--3--3--3--3--|
--------------------------|--------------------------|


C5 C5
--------------------------|--------------------------|
--------------------------|--------------------------|
--5--------5--------------|--5--------5--------------|
--5--------5--------------|--5--------5--------------|
--3--3--3--3--3--3--3--3--|--3--3--3--3--3--3--3--3--|
--------------------------|--------------------------|



C(b5) G5
--------------------------|-------------------|-------------------|
--------------------------|-------------------|-------------------|
--5--------5--------------|-------------------|-------------------|
--4--------4--------------|--4\---------------|--5----------------|
--3--3--3--3--3--3--3--3--|-------------------|--5----------------|
--------------------------|-------------------|--3----------------|



G5 G5
------------------|-------------------|------------------|-------------------|
------------------|-------------------|------------------|-------------------|
------------------|-------------------|------------------|-------------------|
------------------|--5----------------|------------------|--5----------------|
------------------|--5----------------|------------------|--5----------------|
------------------|--3----------------|------------------|--3----------------|


G5 G5
------------------|-------------------|------------------|-------------------|
------------------|-------------------|------------------|-------------------|
------------------|-------------------|------------------|-------------------|
------------------|--5----------------|------------------|--5----------------|
------------------|--5----------------|------------------|--5----------------|
------------------|--3----------------|------------------|--3----------------|


G5
---------------------|-------------------|---------------------|
---------------------|-------------------|---------------------|
---------------------|-------------------|---------------------|
---------------------|--5----------------|---------------------|
---------------------|--5----------------|---------------------|
------------x--x--0--|--3----------------|------------x--x--0--|


G5 G5
-------------------|---------------------|-------------------|
-------------------|---------------------|-------------------|
-------------------|---------------------|-------------------|
--5----------------|---------------------|--5----------------|
--5----------------|---------------------|--5----------------|
--3----------------|------------x--x--0--|--3----------------|


Gm7 G7sus4 Gm7 Dm7
-------------------||--------------------------|-------------------------|
-------------------||--------------------------|----------------------6--|
----------------3--||----5-----------------3--|----5--------5p-3-----5--|
----------------3--||----3-----------------3--|----3--------3-----0--0--|
-------------------||--------------------------|-------------------------|
-------------------||--------3--3--3--3--3-----|-------3--3--------------|


D7sus4 Dm7 D7sus4 Gm7 G7sus4 Gm7
-------------------------|--------------------------||-------------------------|
----8-----------------6--|----8---------------------||-------------------------|
----5-----------------5--|----5-----------------3--||----5-----------------3--|
----0--0--0--0--0--0--0--|----0--0--0--0--0--0--3--||----3-----------------3--|
-------------------------|--------------------------||-------------------------|
-------------------------|--------------------------||-------3--3--3--3--3-----|



Dm7 D7sus4 Dm7 D7sus4 Gm7
-------------------------|-------------------------|-------------------------|
----------------------6--|----8-----------------6--|----8--------------------|
----5--------5p-3-----5--|----5-----------------5--|----5-----------------3--|
----3--------3-----0--0--|----0--0--0--0--0--0--0--|----0--0--0--0--0--0--3--|
-------------------------|-------------------------|-------------------------|
-------3--3--------------|-------------------------|-------------------------|



G7sus4 Gm7 Dm7 D7sus4 Dm7
-------------------------|-------------------------|-------------------------|
-------------------------|----------------------6--|----8-----------------6--|
----5-----------------3--|----5--------5p-3-----5--|----5-----------------5--|
----3-----------------3--|----3--------3-----0--0--|----0--0--0--0--0--0--0--|
-------------------------|-------------------------|-------------------------|
-------3--3--3--3--3-----|-------3--3--------------|-------------------------|


D7sus4 Gm7 G7sus4 Gm7 Dm7
-------------------------|-------------------------|--------------------------|
----8--------------------|-------------------------|-----------------------6--|
----5-----------------3--|----5--------------------|--3--------3-----------5--|
----0--0--0--0--0--0--3--|----3--------------------|--3--------3-----------0--|
-------------------------|-------------------------|--------------------------|
-------------------------|-------3--3--3--3--3--3--|-----3--3-----3--3--3-----|


D7sus4 Dm7 Gm7 G7sus4
-------------------------|--------------------------|-------------------------|
----8--------------------|--6--------6--------------|-------------------------|
----5--------------------|--5--------5-----------3--|----5--------------------|
----0--0--0--0--0--0--0--|--0--0--0--0--0--0--0--3--|----3--------------------|
-------------------------|--------------------------|-------------------------|
-------------------------|--------------------------|-------3--3--3--3--3--3--|


Gm7 Dm7 D7sus4 Dm7 Gm7
--------------------------|-------------------------|--------------------------|
-----------------------6--|----8--------------------|--6--------6--------------|
--3--------3-----------5--|----5--------------------|--5--------5-----------3--|
--3--------3-----------0--|----0--0--0--0--0--0--0--|--0--0--0--0--0--0--0--3--|
--------------------------|-------------------------|--------------------------|
-----3--3-----3--3--3-----|-------------------------|--------------------------|


G7sus4 Gm7 Dm7 D7sus4
-------------------------|--------------------------|-------------------------|
-------------------------|-----------------------6--|----8--------------------|
----5--------------------|--3--------3-----------5--|----5--------------------|
----3--------------------|--3--------3-----------0--|----0--0--0--0--0--0--0--|
-------------------------|--------------------------|-------------------------|
-------3--3--3--3--3--3--|-----3--3-----3--3--3-----|-------------------------|


Dm7 Gm7 G7sus4 Gm7 Dm7
--------------------------|-------------------------|--------------------------|
--6--------6--------------|-------------------------|-----------------------6--|
--5--------5-----------3--|----5--------------------|--3--------3-----------5--|
--0--0--0--0--0--0--0--3--|----3--------------------|--3--------3-----------0--|
--------------------------|-------------------------|--------------------------|
--------------------------|-------3--3--3--3--3--3--|-----3--3-----3--3--3-----|



D7sus4 Dm7 Gm7 G7sus4
-------------------------|--------------------------|-------------------------|
----8--------------------|--6--------6--------------|-------------------------|
----5--------------------|--5--------5-----------3--|----5--------------------|
----0--0--0--0--0--0--0--|--0--0--0--0--0--0--0--3--|----3--------------------|
-------------------------|--------------------------|-------------------------|
-------------------------|--------------------------|-------3--3--3--3--3--3--|



Gm7 Dm7 D7sus4 Dm7 Gm7
--------------------------|-------------------------|--------------------------|
-----------------------6--|----8--------------------|--6--------6--------------|
--3--------3-----------5--|----5--------------------|--5--------5-----------3--|
--3--------3-----------0--|----0--0--0--0--0--0--0--|--0--0--0--0--0--0--0--3--|
--------------------------|-------------------------|--------------------------|
-----3--3-----3--3--3-----|-------------------------|--------------------------|


G7sus4 Gm7 Dm7 D7sus4
-------------------------|--------------------------|-------------------------|
-------------------------|-----------------------6--|----8--------------------|

----5--------------------|--3--------3-----------5--|----5--------------------|
----3--------------------|--3--------3-----------0--|----0--0--0--0--0--0--0--|
-------------------------|--------------------------|-------------------------|
-------3--3--3--3--3--3--|-----3--3-----3--3--3-----|-------------------------|


Dm7 D#5
---------------------------|--------------------------|
--6--------6---------------|--------------------------|
--5--------5---------------|--8--------8--------------|
--0--0--0--0--0--0--0--12--|--8--------8--------------|
---------------------------|--6--6--6--6--6--6--6--6--|
---------------------------|--------------------------|


Eb6 D#5 D#5
---------------------------|--------------------------|
---------------------------|--------------------------|
------------8--------------|--8--------8--------------|
--10--------8--------------|--8--------8--------------|
--6---6--6--6--6--6--6--6--|--6--6--6--6--6--6--6--6--|
---------------------------|--------------------------|


F5
--------------------------|----------------------------|
--------------------------|----------------------------|
--8--------8--------------|--10--------10--------------|
--8--------8--------------|--10--------10--------------|
--6--6--6--6--6--6--6--6--|--8---8--8--8---8--8--8--8--|
--------------------------|----------------------------|



----------------------------|----------------------------|
----------------------------|----------------------------|
--10--------10--------------|--10--------10--------------|
--10--------10--------------|--10--------10--------------|
--8---8--8--8---8--8--8--8--|--8---8--8--8---8--8--8--8--|
----------------------------|----------------------------|



D#5
----------------------------|--------------------------|
Добавлено: 14.10.2013
Другие материалы по этой песне:

Страница создана 04.03.2012
http://primanota.ru/joe-satriani/crushing-day-chords.htm
Привет, Гость.
Предлагаем пройти революционный курс по гитаре.
Подарок от PrimaNota.Ru, забирай!