PrimaNota.ru - самый крупный в мире бесплатный архив песенных текстов, аккордов, табулатур и нот


Joe Satriani - Cant Slow Down - аккорды и текст, таба, видео

Регистрация Запомнить меня
Войти через:  Facebook Google Twitter Vk Yandex Mail.ru

Joe Satriani - Cant Slow Down - аккорды и текст, таба, видео

Печатать
Просмотров: 153
Cant Slow Down
Joe Satriani
Intro
Q=138
4/4
Gtr I
\7
~~~~~~~~~~~~~~~~~
E|-----|----------|------------|---------------|----------------|
B|-/10s|=8--------|-(8)--------|---------------|----------------|
G|-----|----------|------------|---------------|----------------|
D|-----|----------|------------|---------------|----------------|
A|-----|----------|------------|-/3s5---(5)----|-(5)--------(5)-|
E|-----|----------|------------|---------------|----------------|
|
| Gtr II
E|-----|----------|------------|---------------|----------------|
B|-----|----------|------------|---------------|----------------|
G|-----|----------|------------|---------------|----------------|
D|-----|----------|------------|---------------|----------------|
A|-----|----------|------------|---------------|--xs=xs=x\------|
E|-----|----------|------------|---------------|--xs=xs=x\--12\-|
 
E||--------------------------------|
B||o-------------------------------|
G||--------------------------------|
D||--11---12-(12)---14-(14)-17--14-|
A||o--0-0--0--(0)-0--0--(0)--0---0-|
E||--------------------------------|

PM--------|
|---------------------------------------|------------------------------|
|---------------------------------------|------------------------------|
|---------------------------------------|-------------------2-(2)-2-2--|
|-16---12-(12)-14-14-(14)-14-(14)-14-14-|-------------2-(2)-2-(2)-2-2--|
|--0-0--0--(0)--0--0--(0)--0--(0)--0--0-|-------------0-(0)-0-(0)------|
|---------------------------------------|-2-0-3-(3)-0------------------|

E|-------------------------------|-------------------------------|
B|-------------------------------|-------------------------------|
G|-------------------2-(2)-------|-------------------------------|
D|-5p0-7p0-----------2-(2)-------|-11---12-(12)---14-(14)-17--14-|
A|---------5h7p5p0-0-------0-0-0-|--0-0--0--(0)-0--0--(0)--0---0-|
E|-------------------------------|-------------------------------|

E|------------------------------------|
B|------------------------------------|
G|------------------------------------|
D|--12-(12)---11-(11)-------14-14-|---|
A|-------0--(0)-0--0--(0)-0-(0)--0--0-|
E|------------------------------------|

PM--------|
|-----------------------------|
|-----------------------------|
|-------------------2-(2)-2-2-|
|-------------2-(2)-2-(2)-2-2-|
|-------------0-(0)-0-(0)-----|
|-2-0-3-(3)-0-----------------|

1. 2.
E|--------------------------------||--------------------|
B|-------------------------------o||--------------------|
G|-------------------2-(2)--------||--------------------|
D|-5p0-7p0-----------2-(2)--------||--5p0-7p0---------2-|
A|---------5h7p5p0-0-0-(0)-0-0-0-o||----------5h7p5p0-0-|
E|--------------------------------||--------------------|

Verse 1 + 3
$$
E|--------------------|-----------------------------|
B|-3-3-(3)-2-(2)------|-----------------------------|
G|-2-2-(2)-2-(2)-2----|-2-0-2-(2)-0-2-(2)-----------|
D|-2-2-(2)-2-(2)-2----|-2-0-2-(2)-0-2-(2)-------2---|
A|------------------0-|-------------------------0-0-|
E|--------------------|-------------------3b3.5-----|

E|--------------------|-----------------------------|
B|-3-3-(3)-2-(2)------|-----------------------------|
G|-2-2-(2)-2-(2)-2----|-2-0-2-(2)-0-2-(2)-----------|
D|-2-2-(2)-2-(2)-2----|-2-0-2-(2)-0-2-(2)-------2---|
A|------------------0-|-------------------------0-0-|
E|--------------------|-------------------3b3.5-----|

E|--------------------|-----------------------------|
B|-3-3-(3)-2-(2)------|-----------------------------|
G|-2-2-(2)-2-(2)-2----|-2-0-2-(2)-0-2-(2)-----------|
D|-2-2-(2)-2-(2)-2----|-2-0-2-(2)-0-2-(2)-------2---|
A|------------------0-|-------------------------0-0-|
E|--------------------|-------------------3b3.5-----|

E|--------------------|-----------------------------|
B|-3-3-(3)-2-(2)------|-----------------------------|
G|-2-2-(2)-2-(2)-2----|-2-0-2-(2)-0-2-(2)-----------|
D|-2-2-(2)-2-(2)-2----|-2-0-2-(2)-0-2-(2)-------2---|
A|------------------0-|-------------------------0-0-|
E|--------------------|-------------------3b3.5-----|

E|--------------------|-----------------------------|
B|-3-3-(3)-2-(2)------|-----------------------------|
G|-2-2-(2)-2-(2)-2----|-2-0-2-(2)-0-2-(2)-----------|
D|-2-2-(2)-2-(2)-2----|-2-0-2-(2)-0-2-(2)-------2---|
A|------------------0-|-------------------------0-0-|
E|--------------------|-------------------3b3.5-----|

E|--------------------|-----------------------------|
B|-3-3-(3)-2-(2)------|-----------------------------|
G|-2-2-(2)-2-(2)-2----|-2-0-2-(2)-0-2-(2)-----------|
D|-2-2-(2)-2-(2)-2----|-2-0-2-(2)-0-2-(2)-------2---|
A|------------------0-|-------------------------0-0-|
E|--------------------|-------------------3b3.5-----|

E|--------------------|-----------------------------|
B|-3-3-(3)-2-(2)------|-----------------------------|
G|-2-2-(2)-2-(2)-2----|-2-0-2-(2)-0-2-(2)-----------|
D|-2-2-(2)-2-(2)-2----|-2-0-2-(2)-0-2-(2)-------2---|
A|------------------0-|-------------------------0-0-|
E|--------------------|-------------------3b3.5-----|

E|--------------------|-----------------------------|
B|-3-3-(3)-2-(2)------|-----------------------------|
G|-2-2-(2)-2-(2)-2----|-2-0-2-(2)-0-2-(2)-----------|
D|-2-2-(2)-2-(2)-2----|-2-0-2-(2)-0-2-(2)-------2---|
A|------------------0-|-------------------------0-0-|
E|--------------------|-------------------3b3.5-----|

Chorus
$
PM--------------------------------------------------------------|
|---------------------------------|---------------------------------|
|---------------------------------|---------------------------------|
|---------------------------------|---------------------------------|
|---------------------------------|---------------------------------|
|---------------------------------|---------------------------------|
|-3-3-3-3-3-3-3-3-2-2-2-2-2-2-2-2-|-0-0-0-0-0-0-0-0-2-2-2-2-2-2-2-2-|

E|-------------------------|-----------------|
B|-------------------------|-3-------------5-|
G|-------------------------|-0-0-(0)-------2-|
D|-2---2-(2)---2-(2)---2S5-|---4-(4)-2-(2)---|
A|-0---0-(0)---0-(0)---0---|---------0-(0)---|
E|---3-------3-------3-----|-----------------|

PM--------------------------------------------------------------|
|---------------------------------|---------------------------------|
|---------------------------------|---------------------------------|
|---------------------------------|---------------------------------|
|---------------------------------|---------------------------------|
|---------------------------------|---------------------------------|
|-3-3-3-3-3-3-3-3-2-2-2-2-2-2-2-2-|-0-0-0-0-0-0-0-0-2-2-2-2-2-2-2-2-|
|
E|---|
B|---|
G|---|
D|---|
A|---|
E|---|

To Coda
To Coda
E|-------------------------|-----------------|
B|-------------------------|-----------------|
G|-------------------------|-----------------|
D|-2---2-(2)---2-(2)---2S5-|-----------------|
A|-0---0-(0)---0-(0)---0---|--------------x/-|
E|---3-------3-------3-----|-----------------|
|
E|-------------------------|-----------------------------------------------|
B|-------------------------|---3-----------------------------------------5-|
G|-------------------------|---0-------------0--(0)----------------------2-|
D|-------------------------|-----------------4--(4)------2------(2)--------|
A|-------------------------|-----------------------------0------(0)--------|
E|-------------------------|-----------------------------------------------|

E|-------------------------------|---------------------------------------|
B|-------------------------------|---------------------------------------|
G|-------------------------------|---------------------------------------|
D|-11---12-(12)---14-(14)-17--14-|-16---12-(12)-14-14-(14)-14-(14)-14-14-|
A|--0-0--0--(0)-0--0--(0)--0---0-|--0-0--0--(0)--0--0--(0)--0--(0)--0--0-|
E|-------------------------------|---------------------------------------|

PM--------|
|-----------------------------|-------------------------------|
|-----------------------------|-------------------------------|
|-------------------2-(2)-2-2-|-------------------2-(2)-------|
|-------------2-(2)-2-(2)-2-2-|-5p0-7p0-----------2-(2)-------|
|-------------0-(0)-0-(0)-----|---------5h7p5p0-0-------0-0-0-|
|-2-0-3-(3)-0-----------------|-------------------------------|

E|-------------------------------|------------------------------------|
B|-------------------------------|------------------------------------|
G|-------------------------------|------------------------------------|
D|-11---12-(12)---14-(14)-17--14-|--12-(12)---11-(11)-------14-14-|---|
A|--0-0--0--(0)-0--0--(0)--0---0-|-------0--(0)-0--0--(0)-0-(0)--0--0-|
E|-------------------------------|------------------------------------|

PM--------|
|-----------------------------|----------------------||
|-----------------------------|----------------------||
|-------------------2-(2)-2-2-|----------------------||
|-------------2-(2)-2-(2)-2-2-|-5p0-7p0---------2----||
|-------------0-(0)-0-(0)-----|---------5h7p5p0-0----||
|-2-0-3-(3)-0-----------------|----------------------||

Verse 2
E|--------------------|-----------------------------|
B|-3-3-(3)-2-(2)------|-----------------------------|
G|-2-2-(2)-2-(2)-2----|-2-0-2-(2)-0-2-(2)-----------|
D|-2-2-(2)-2-(2)-2----|-2-0-2-(2)-0-2-(2)-------2---|
A|------------------0-|-------------------------0-0-|
E|--------------------|-------------------3b3.5-----|

E|--------------------|-----------------------------|
B|-3-3-(3)-2-(2)------|-----------------------------|
G|-2-2-(2)-2-(2)-2----|-2-0-2-(2)-0-2-(2)-----------|
D|-2-2-(2)-2-(2)-2----|-2-0-2-(2)-0-2-(2)-------2---|
A|------------------0-|-------------------------0-0-|
E|--------------------|-------------------3b3.5-----|

E|--------------------|-----------------------------|
B|-3-3-(3)-2-(2)------|-----------------------------|
G|-2-2-(2)-2-(2)-2----|-2-0-2-(2)-0-2-(2)-----------|
D|-2-2-(2)-2-(2)-2----|-2-0-2-(2)-0-2-(2)-------2---|
A|------------------0-|-------------------------0-0-|
E|--------------------|-------------------3b3.5-----|

D.S. al Coda
E|--------------------|-----------------------------|
B|-3-3-(3)-2-(2)------|-----------------------------|
G|-2-2-(2)-2-(2)-2----|-2-0-2-(2)-0-2-(2)-----------|
D|-2-2-(2)-2-(2)-2----|-2-0-2-(2)-0-2-(2)-------2---|
A|------------------0-|-------------------------0-0-|
E|--------------------|-------------------3b3.5-----|

&
PM--------------------------------------------------------------|
|---------------------------------|---------------------------------|
|---------------------------------|---------------------------------|
|---------------------------------|---------------------------------|
|---------------------------------|---------------------------------|
|---------------------------------|---------------------------------|
|-3-3-3-3-3-3-3-3-2-2-2-2-2-2-2-2-|-0-0-0-0-0-0-0-0-2-2-2-2-2-2-2-2-|

E|-------------------------|-----------------|
B|-------------------------|-3-------------5-|
G|-------------------------|-0-0-(0)-------2-|
D|-2---2-(2)---2-(2)---2S5-|---4-(4)-2-(2)---|
A|-0---0-(0)---0-(0)---0---|---------0-(0)---|
E|---3-------3-------3-----|-----------------|

E|---|
B|---|
G|---|
D|---|
A|---|
E|---|
|
| Gtr I
| PM--------------------------------------------------------------|
|---------------------------------|---------------------------------|
|---------------------------------|---------------------------------|
|---------------------------------|---------------------------------|
|---------------------------------|---------------------------------|
|---------------------------------|---------------------------------|
|-3-3-3-3-3-3-3-3-2-2-2-2-2-2-2-2-|-0-0-0-0-0-0-0-0-2-2-2-2-2-2-2-2-|

Gtr II
E|-------------------------|----|
B|-------------------------|----|
G|-------------------------|----|
D|-------------------------|----|
A|-------------------------|-x\-|
E|-------------------------|-x\-|
|
E|-------------------------|--------------------------|
B|-------------------------|--------------------------|
G|-------------------------|--------------------------|
D|-2---2-(2)---2-(2)---2---|-2----2-(2)---2-(2)---2---|
A|-0---0-(0)---0-(0)---0---|-0----0-(0)---0-(0)---0---|
E|---3-------3-------3---3-|----3-------3-------3---3-|

Guitar Solo
E|-16h17p16p14----14-16h=17p==16p14----14-16h=17p16p14----14-16h17p16p14----14-|
B|-------------17-------------------17-----------------17----------------17----|
G|-----------------------------------------------------------------------------|
D|-----------------------------------------------------------------------------|
A|-----------------------------------------------------------------------------|
E|-----------------------------------------------------------------------------|
|
| ~~~~~~~~~~~~
E|-------------------------------------------------------------------------|
B|-------------------------------------------------------------------------|
G|-------------------------------------------------------------------------|
D|-------------------------------------------------------------------------|
A|-------------------------------------------------------------------------|
E|--2--------0----2----(2)----0-----2-------(2)--------0--------2--------5-|

E|-16-17p16p14--------16--17p==16p14----14-16-17p16p14----14-16-17p16p14----14-|
B|-------------17--14----------------17----------------17----------------17----|
G|-----------------------------------------------------------------------------|
D|-----------------------------------------------------------------------------|
A|-----------------------------------------------------------------------------|
E|-----------------------------------------------------------------------------|
|
| ~~~~~~~~~~~~
E|-------------------------------------------------------------------------|
B|-------------------------------------------------------------------------|
G|-------------------------------------------------------------------------|
D|-------------------------------------------------------------------------|
A|-------------------------------------------------------------------------|
E|--2--------0----2----(2)----0-----2-------(2)--------0--------2--------0-|

E|-17-19p17p14--------16--17p16p14--------------------------------------------|
B|-------------x---14--------------17-14-16h=17p16-14-16-14-16h17p16p14-------|
G|----------------------------------------------------------------------17-14-|
D|----------------------------------------------------------------------------|
A|----------------------------------------------------------------------------|
E|----------------------------------------------------------------------------|
|
| ~~~~~~~~~
E|-------------------------------------------------------------------------|
B|-------------------------------------------------------------------------|
G|-------------------------------------------------------------------------|
D|-------------------------------------------------------------------------|
A|-------------------------------------------------------------------------|
E|--2--------0---2----(2)-----0-----2----(2)-----------0-----2-----------5-|

E|-----------------------------------------------------|
B|-16h17p16p14-----------------------------------------|
G|-------------17p==14h16p=14p13h14h16p14p13s11h13p=11-|
D|-----------------------------------------------------|
A|-----------------------------------------------------|
E|-----------------------------------------------------|

E|-------------------------------|
B|-------------------------------|
G|-11h13h14p13p11s9h11h13p9s8-11-|
D|-------------------------------|
A|-------------------------------|
E|-------------------------------|
|
E|---------------------------------------------------------0-----------------0-|
B|---------------------------------------------------------0-----------------0-|
G|-----------------------------------------------------------------------------|
D|-----------------------------------------------------------------------------|
A|-----------------------------------2----------(2)----------------------------|
E|--2--------0----2----(2)-----0-----0----------(0)----------------0-----------|

E|----------------------------------------------------------------|
B|----------------------------------------------------------------|
G|-6h8h9-(9)p8p6s8--8h=9h11p8s6-8h9p=8p=6-----------------------8-|
D|----------------------------------------9-6h7h9-6h7h9p7p6h7h9---|
A|----------------------------------------------------------------|
E|----------------------------------------------------------------|
|
| ~~~~~~~~~~
E|----------------------------------------------------------|
B|----------------------------------------------------------|
G|----------------------------------------------------------|
D|----------------------------------------------------------|
A|----------------------------------------------------------|
E|-2------0----2---(2)----0---2-----(2)-----0-----2-------5-|

E|------------------------------------------------------------|
B|------------------------------------------------------------|
G|-8h9p8p6-----6--8h=9p==8p6---6--8h=9p8p6--------------------|
D|---------9-----------------9-------------9-6h7h9p7p6s7h9h11-|
A|------------------------------------------------------------|
E|------------------------------------------------------------|
|
| ~~~~~~~~~~
E|-------------------------------------------------------|
B|-------------------------------------------------------|
G|-------------------------------------------------------|
D|-------------------------------------------------------|
A|-------------------------------------------------------|
E|-2-----0---2---(2)---0---2-----(2)-----0-----2-------0-|

E|---------------------------------------------------------|
B|---------------------------------------------------------|
G|-8h9h11p8s6h8h9p=8------------------6--------------------|
D|--------------------9-6h7h9p=6h=7h9---7p6-6h7h9p6s7h9h11-|
A|---------------------------------------------------------|
E|---------------------------------------------------------|
|
| ~~~~~~~~~~
E|----------------------------------------------------|
B|----------------------------------------------------|
G|----------------------------------------------------|
D|----------------------------------------------------|
A|----------------------------------------------------|
E|-2--------0-2---(2)-0-2-----(2)-------0---2-------5-|

E|-----------------------------------|
B|-----------------------------------|
G|-------------------------4---(4)-2-|
D|-6h7h9p6s4-------------------------|
A|------------4s=2-4s6--6------------|
E|-----------------------------------|
|
E|---------------------------0-------0-|
B|---------------------------0-------0-|
G|-------------------------------------|
D|-------------------------------------|
A|-----------------2---(2)-------------|
E|-2-----0-2-(2)-0-0---(0)------0------|

E|--------------2--------------------------|
B|-----------------5-2----2----2---2-------|
G|-4b6==(4)r-----------4-----5---5---5-4-2-|
D|-----------------------------------------|
A|-----------------------------------------|
E|-----------------------------------------|
|
| ~~~~~~~~
E|---------------------------------------|
B|---------------------------------------|
G|---------------------------------------|
D|---------------------------------------|
A|---------------------------------------|
E|-2-----0---2-(2)-0-2---(2)---0---2---5-|

E|-------------------------------------|
B|----------2--5-2-1s=2----2-2-5p4p2s1-|
G|---2-4-5---------------5-------------|
D|-4-----------------------------------|
A|-------------------------------------|
E|-------------------------------------|
|
| ~~~~~~~~
E|-----------------------------------|
B|-----------------------------------|
G|-----------------------------------|
D|-----------------------------------|
A|-----------------------------------|
E|-2---0-2-(2)-0-2---(2)---0---2---0-|

E|-------------------------------------------------|
B|-2-4-5p4p==2--4--4b5r(4)p2----2--------5p4p2---2-|
G|---------------------------5-----5-4-2-------5---|
D|-------------------------------------------------|
A|-------------------------------------------------|
E|-------------------------------------------------|
|
| ~~~~~~~~
E|-----------------------------------------------|
B|-----------------------------------------------|
G|-----------------------------------------------|
D|-----------------------------------------------|
A|-----------------------------------------------|
E|-2---0---2---(2)-0-------2---(2)---0---2-----5-|

~~~~~~~~~
E|---------------------------2-----2-|
B|-4p2---2---------------------------|
G|-----5----5--4-2-[4]-([4])---/x\---|
D|-----------------------------------|
A|-----------------------------------|
E|-----------------------------------|
|
E|---------------------------0-----0-|
B|---------------------------0-----0-|
G|-----------------------------------|
D|-----------------------------------|
A|---------------2------(2)----------|
E|-2---0-2-(2)-0-0------(0)-----0----|

E|-5p2p0--------2p=0-2p0--7p=5p0-(0)-0-7p5p0-0-7p5p0-|
B|-------0h2-----------------------------------------|
G|---------------------------------------------------|
D|---------------------------------------------------|
A|---------------------------------------------------|
E|---------------------------------------------------|
|
| ~~~~~~~~
E|-----------------------------------------------|
B|-----------------------------------------------|
G|-----------------------------------------------|
D|-----------------------------------------------|
A|-----------------------------------------------|
E|-2-----0---2-(2)-0-2---(2)------0------2-----5-|

E|-9p7p0-(0)-0-9p=7p=0---0-9p7p0-12p=9p0-(0)-0-12p9p0-0-12p9p0-|
B|-------------------------------------------------------------|
G|-------------------------------------------------------------|
D|-------------------------------------------------------------|
A|-------------------------------------------------------------|
E|-------------------------------------------------------------|
|
| ~~~~~~~~~~
E|---------------------------------------------------------|
B|---------------------------------------------------------|
G|---------------------------------------------------------|
D|---------------------------------------------------------|
A|---------------------------------------------------------|
E|-2------0----2-(2)---0---2-----(2)------0-------2------0-|

E|-14p12p0-(0)-0-14p12p=0---0-14p12p0-17p=14p0-(0)-0-17--------|
B|------------------------------------------------------14/----|
G|-------------------------------------------------------------|
D|-------------------------------------------------------------|
A|-------------------------------------------------------------|
E|----------------------------------------------------------xs-|
|
| ~~~~~~~~~~~
E|------------------------------------------------------------|
B|------------------------------------------------------------|
G|------------------------------------------------------------|
D|------------------------------------------------------------|
A|------------------------------------------------------------|
E|--2-------0-----2-(2)---0----2------(2)-------0--------2--5-|

~~~~~
E|----19b21-----------19b21-----9-9-|
Добавлено: 13.02.2014
Другие материалы по этой песне:

Страница создана 07.03.2012
http://primanota.ru/joe-satriani/cant-slow-down-chords.htm
Привет, Гость.
Предлагаем пройти революционный курс по гитаре.
Подарок от PrimaNota.Ru, забирай!