PrimaNota.ru - самый крупный в мире бесплатный архив песенных текстов, аккордов, табулатур и нот


Joe Satriani - Belly Dancer - аккорды и текст, таба, видео

Регистрация Запомнить меня
Войти через:  Facebook Google Twitter Vk Yandex Mail.ru

Joe Satriani - Belly Dancer - аккорды и текст, таба, видео

Печатать
Просмотров: 158
Авторы музыки: Joe Satriani

Belly Dancer
Joe Satriani
---------------------------------------|-----------------------------------|--
---------------------------------------|-----------------------------------|--
---------------------------------------|---------8-7-5---------------------|--
-7--7-7--8-7-5--5-5---5--5-5--5--5-5-5-|-7--7-7---------5-5--5--3-3--3-3-3-|--
-5--5-5--5-5-5--5-5---3--3-3--3--3-3-3-|-5--5-5--5-5-5--5-5--3--1-1--1-1-1-|--
---------------------------------------|-----------------------------------|--
    
 
---------------------------------------|--------------------------------||----
---------------------------------------|--------------------------------||----
---------------------------------------|---------8-7-5-----------12-12--||----
-7--7-7--8-7-5--5-5---5--5-5--5--5-5-5-|-7--7-7---------5-5------12-12--||----
-5--5-5--5-5-5--5-5---3--3-3--3--3-3-3-|-5--5-5--5-5-5--5-5------10-10--||----
---------------------------------------|--------------------------------||----
    

---------------------|------------------------------|----------------------|--
---------------------|------------------------------|----------------------|--
---------------------|-7-8-7-5-7-5-3-2--------------|----------------------|--
-5-3-3/5v-5-7-7b8-5v-|-----------------5-3-3-5/7-5v-|-5-3-3/5v-5-7-7-8-10v-|--
---------------------|------------------------------|----------------------|--
---------------------|------------------------------|----------------------|--
Riff I (with wah)

-----------------------------||-----------------------------------------------
-----------------------------||-----------------------------------------------
-7-8-7-5-7--5-3-2------------||-----------------------------------------------
------------------5----------||-----------------------------------------------
--------------------3-3v-----||-----------------------------------------------
-----------------------------||-----------------------------------------------


----------------------------------------------------------|-------------------
-9/11-11-11-11-11-11-11/13-13-13-13-13-13-13/15-15-15-15v-|-------------------
----------------------------------------------------------|-------------------
----------------------------------------------------------|-------------------
----------------------------------------------------------|-------------------
----------------------------------------------------------|-------------------
Bridge (not all hits shown)

-------------------------------------------------------------------------||---
-9/11-11-11-11-11-11-11/13-13-13-13-13-13/15-15-15-15v-15h16p15h16p15h16-||---
-------------------------------------------------------------------------||---
-------------------------------------------------------------------------||---
-------------------------------------------------------------------------||---
-------------------------------------------------------------------------||---


------------------------------------------------------------||----------------
------------------------------------------------------------||----------------
-12h13p12-10-12--8h10p8-------------------------------------||-4x-------------
------------------------12-13-10h12p10-9h10p9---------------||----------------
----------------------------------------------10h11p10-8-10-||----------------
------------------------------------------------------------||----------------
Riff II (fast)

------------------------------------------------------------------|-----------
------------------------------------------------------------------|-----------
-5/7-7-7v--5/7-8-7-5-7-5-5-5v---3/5-5-5--3/5-7-5-3-5-3-2----------|-----------
---------------------------------------------------------6-5-3-3v-|-----------
------------------------------------------------------------------|-----------
------------------------------------------------------------------|-----------
Riff III

-----------------------------------------------------------------||-----------
-----------------------------------------------------------------||-----------
-5/7-7-7v--5/7-10-8-7-8-5-5v---3/5-5-5-3/5-7-5-3-5-3-2-----------||-----------
-------------------------------------------------------6-5-3-3/5-||-----------
-----------------------------------------------------------------||-----------
-----------------------------------------------------------------||-----------


------------------------------------------|-----------------------------------
------------------------------------------|-----------------------------------
-5--5-4--4-3--3--3-3----------------------|-----------------------------------
-5--5-4--4-3--3--3-3--3--3-4--4-5--5--5-5-|-----------------------------------
-3--3-2--2-1--1--1-1--3--3-4--4-5--5--5-5-|-----------------------------------
----------------------1--1-2--2-3--3--3-3-|-----------------------------------
Ending repeat over and over...

-------------------------------------------------------||---------------------
-------------------------------------------------------||---------------------
-10h12-12-12--15-15--12-12-12-10-11-12--12/15-12-10----||---------------------
----------------------------------------------------12-||---------------------
-------------------------------------------------------||---------------------
-------------------------------------------------------||---------------------
repeat once and go into a crazy solo
Добавлено: 23.09.2013
Другие материалы по этой песне:

Страница создана 23.03.2012
http://primanota.ru/joe-satriani/belly-dancer-chords.htm
Привет, Гость.
Предлагаем пройти революционный курс по гитаре.
Подарок от PrimaNota.Ru, забирай!