PrimaNota.ru - самый крупный в мире бесплатный архив песенных текстов, аккордов, табулатур и нот


Joe Robinson - Lethal Injection - таба, видео

Регистрация Запомнить меня
Войти через:  Facebook Google Twitter Vk Yandex Mail.ru

Joe Robinson - Lethal Injection - таба, видео

Печатать
Просмотров: 160
Уроки эстрадного вокала в Санкт-Петербурге
I know that it's not complete, I do my best to tab it out for you guys!


Joe Robinson - Lethal Injection

e|---------------------------------------------------------------------------------|
B|--------------------------------------------------10-----------------------------|
G|-------7----7h8p7-----------------7---7h8p7-----------------7----7h8p7-----------|
D|--7-10---10------10-7-7-7----7-10---10-----10-7-7------7-10---10------10-7-7-7---|
A|---------------------------------------------------------------------------------|
E|---------------------------------------------------------------------------------|

e|---------------------8-10-11-12-8-10-11-8b9--------------------12-10-------------|
B|--------------------------------------------10---8-10----10-13-------------------|
G|--5---5---5---5--------------------------------9---------------------------------|
D|----7---6---5---4----------------------------------------------------------------|
A|---------------------------------------------------------------------------------|
E|---------------------------------------------------------------------------------|

e|--------12-10-10h11p10----10--------------8----------8-10-11-12-8-10-11-8b9------|
B|--10-13----------------13----10-10-8p9p10----------------------------------------|
G|--------------------------------------------11-11--------------------------------|
D|---------------------------------------------------------------------------------|
A|---------------------------------------------------------------------------------|
E|---------------------------------------------------------------------------------|

e|-------------------12-10-------12-10-11-10h11p10----10--------------8------------|
B|--10---8-10--10-13-------10-13-------------------13----10-10-8p9p10--------------|
G|-----9----------------------------------------------------------------11-11------|
D|---------------------------------------------------------------------------------|
A|---------------------------------------------------------------------------------|
E|---------------------------------------------------------------------------------|

e|-----------8-10-11b12-11b12-10--10/11-11-11-12-8b9-----/12-15-11/10-10h11p10------|
B|--8h(9)h10-----------------------------------------10-----------------------13-10-|
G|----------------------------------------------------------------------------------|
D|----------------------------------------------------------------------------------|
A|----------------------------------------------------------------------------------|
E|----------------------------------------------------------------------------------|

e|--/8---7---6---5------10/12-10/12-10v-10/11-11-11-11-12-8b9----/12-15-11/10------|
B|-----9---8---7---6------------------------------------------10-------------------|
G|---------------------------------------------------------------------------------|
D|---------------------------------------------------------------------------------|
A|---------------------------------------------------------------------------------|
E|---------------------------------------------------------------------------------|

e|--10h11p10------------15-17p15---------------------------------------------------|
B|-----------13-10--/15-------------13-15------------------------------------------|
G|---------------------------------------------------------------------------------|
D|---------------------------------------------------------------------------------|
A|---------------------------------------------------------------------------------|
E|---------------------------------------------------------------------------------|

e|---------------------------------------------------------------------------------|
B|---------------------------------------------------------------------------------|
G|-------------------------------------------------9-7------9-7-7h8p7----7---------|
D|--10-12-13-14-10-12-13-10b11----------------7-10-----7-10-----------10---7-7v----|
A|-----------------------------12----12-10-12--------------------------------------|
E|--------------------------------12-----------------------------------------------|

                Wah
e|------------------------------------------------------------------------------------|
B|------------------------------------------------------------------------------------|
G|--------5------5-7-8-9-5-7-9-5b6-7---5-7------9-7------9-7-7h8p7----7---------------|
D|--5h6h7----------------------------7-----7-10-----7-10-----------10---7-7v--5h6h7---|
A|----------9-9v----------------------------------------------------------------------|
E|------------------------------------------------------------------------------------|

e|---------------8-11b12-11b12-10-10/11-12-8b9v-----/12-15-11/10-10h11p10----------|
B|----------8-10--------------------------------10------------------------13-10----|
G|--5------------------------------------------------------------------------------|
D|---------------------------------------------------------------------------------|
A|----9-9v-------------------------------------------------------------------------|
E|---------------------------------------------------------------------------------|

e|--8---7---6---5---4---10/12-10/12-10v-10/11-11-11-11-12-8b9----/12-15-11/10------|
B|----9---8---7---6---5---------------------------------------10-------------------|
G|---------------------------------------------------------------------------------|
D|---------------------------------------------------------------------------------|
A|---------------------------------------------------------------------------------|
E|---------------------------------------------------------------------------------|

e|--10h11p10----------------------------------|
B|-----------13-10----------------------------|
G|--------------------------------------------|
D|--------------------------------------------|
A|--------------------------------------------|
E|--------------------------------------------|
Добавлено: 19.10.2014
Вам также может быть интересно:
Другие материалы по этой песне:
  • Аккорды и текст

Страница создана 19.10.2014
http://primanota.ru/joe-robinson/lethal-injection-chords.htm
Привет, Гость.
Предлагаем пройти революционный курс по гитаре.
Подарок от PrimaNota.Ru, забирай!