PrimaNota.ru - самый крупный в мире бесплатный архив песенных текстов, аккордов, табулатур и нот


Joe Robinson - Ebb And Flow - таба, видео

Регистрация Запомнить меня
Войти через:  Facebook Google Twitter Vk Yandex Mail.ru

Joe Robinson - Ebb And Flow - таба, видео

Печатать
Просмотров: 89
-------------------------------------------------------------------------------
                 Ebb and Flow (Loop station version) - Joe Robinson
-------------------------------------------------------------------------------
Tabbed by:
E-mail:

Tuning: Standard
Played with a Loop pedal :) Each part is a loop add on to another!
Link to performance: https://www.youtube.com/watch?v=0DRJKy4hPiM 
Capo on 1st fret

e|--------------------------------------------------------------------------------|
B|--------------------------------------------------------------------------------|
G|-----------------------------------5--------------------------------------------|
D|---------7----------------------------------5----5--x---------5-----5-----------|
A|----------------4-----5--------3--------------------x---------------------------|
E|-----5------0-------5-------------------3-----33----x-----3-------33------------|


         Am          C                 A11 or Em/D
e|--------------------------------------------------------------------------------|
B|--------1----------1---------------------0--------------------------------------|
G|--------2----------0---------------------0--------------------------------------|
D|--------2----------2---------------------0--------------------------------------|
A|-------------------3------------------------------------------------------------|
E|--------------------------------------------------------------------------------|

e|--------------------------------------------------------------------------------|
B|-------------------10b12--8--8--10----------------------------------------------|
G|-----7b9--5-5-------------------------------------------------------------------|
D|---------------7----------------------------------------------------------------|
A|--------------------------------------------------------------------------------|
E|--------------------------------------------------------------------------------|


************************************

| /   slide up
| \   slide down
| h   hammer-on
| p   pull-off
| ~   vibrato
| +   harmonic
| x   Mute note
| b   Bend
| pb  Pre-bend
| br  Bend release
| pbr Pre-bend release
| brb Bend release bend

************************************
Добавлено: 07.12.2015
Другие материалы по этой песне:
  • Аккорды и текст

Страница создана 07.12.2015
http://primanota.ru/joe-robinson/ebb-and-flow-chords.htm
Привет, Гость.
Предлагаем пройти революционный курс по гитаре.
Подарок от PrimaNota.Ru, забирай!