PrimaNota.ru - самый крупный в мире бесплатный архив песенных текстов, аккордов, табулатур и нот


Joe Purdy - Skinny Duppin Girl - таба, видео

Регистрация Запомнить меня
Войти через:  Facebook Google Twitter Vk Yandex Mail.ru

Joe Purdy - Skinny Duppin Girl - таба, видео

Печатать
Просмотров: 153
Joe Purdy - Skinny Dippin' Girl

Capo V

Verse Chords:
C - Am - F - G

Chorus Chords:
Am - C - F - G

Intro/Verse:
      C              Am                 F                G
E ------------------------------------------------------------------|
B ------------------------------------------1---------------0-------|
G -------------0(0h)--2--0------------------0h2p0-----------0-------|
D -------0h2------------------2---0-------3---------------0-----0---|
A ----3---------------------------------3---------------------------|
E -------------------------------------------------------3----------|

Chorus:
     Am          C            F           G
E -------------------------------------------------------------|
B ---------1------------1-----------1-----------0--------------|
G ---------2------------0-----------2-----------0--------------|
D ------2-----2------2-----0-----3-----3-----0-----0-----------|
A ---0-----------3------------3--------------------------------|
E ----------------------------------------3--------------------|

Verse 1:
C       Am            F           G
   I've been watchin' steady,
C           Am            F            G
   And I've been watchin' you watchin' me.
C             Am            F         G         C
   Think that sunrise gonna turn your blue eyes green.
Am   F   G


I saw you jump in the river,
And you invite me to take a swim.
I can notice you ain't wearin' nothin'
‘Cept your sun kissed skin.

Believe i'll jump right in
Believe i'll jump right in

Chorus:
Am         C     F   G
  Your my skinny dip…pin'…
Am         C     F   G
  Your my skinny dip…pin'…
Am         C     F   G    C
  Your my skinny dip…pin' girl,

Verse 2:
…dippin' girl

We been playin' all these nights,
And you've been dancing' just right.
See you lookin' my way just a'from the stage,
Can't concentrate…(I can‘t).

And I can't wait for this show to end,
We can go down to the dock there.
When that sunlight is turnin' dim, now
Me and you, we're gonna jump right in,
We gonna jump right in,
Oh, we gonna jump right in,
We gonna jump right in.

Chorus:
Your my skinny dippin',
Your my skinny dippin',
Your my skinny dippin' girl.

Verse 3:
My skinny dippin' girl, yeah,
Your my skinny dippin' girl,

We've been drinkin all night, just
Having ourselves such a damn good time.
Watchin' your hair so wet,
Oh darlin, just trying to contain myself, yeah
Trying to contain myself,
Can't contain myself,

Yeah cause…

Chorus:
Your my skinny dippin'
Love my skinny dippin'
Your my skinny dippin' girl

Verse:
Skinny dippin' girl
Your my skinny dippin' girl, no
Mmm…skinny dippin' girl, yeah, mmm

(End on C)
Добавлено: 05.07.2013
Другие материалы по этой песне:
  • Аккорды и текст

Страница создана 05.07.2013
http://primanota.ru/joe-purdy/skinny-duppin-girl-chords.htm
Привет, Гость.
Предлагаем пройти революционный курс по гитаре.
Подарок от PrimaNota.Ru, забирай!