PrimaNota.ru - самый крупный в мире бесплатный архив песенных текстов, аккордов, табулатур и нот


Joe Purdy - Riverboat Captain - аккорды и текст, видео

Регистрация Запомнить меня
Войти через:  Facebook Google Twitter Vk Yandex Mail.ru

Joe Purdy - Riverboat Captain - аккорды и текст, видео

Печатать
Просмотров: 21
Riverboat Captain
Joe Purdy
-------------------------------------------------------------------------------
                             RIVERBOAT CAPTAIN - Joe Purdy
-------------------------------------------------------------------------------
Capo on 2nd
The Tab is both intro and outro

                                                           D
e|-----------------------------------------0---------------2-----------------|
B|--------------------3------0------3----------------------3-----------------|
G|----------0h2----------------------------------0---------2-----------------|
D|------0---------0------0------0------0------0-----0------------------------|
A|---------------------------------------------------------------------------|
E|---------------------------------------------------------------------------|

    D          Bm
Well I'm gonna be a
  G          A
a riverboat captain
    G        D
when I grow up
     Em      A
when I grow old

   D       Em
So we can sail
   G          A
a whole day through
     Em     G
just me and you
     A      TAB
just me and you
                                                    End on D
e|-----------------------------------------0---------------2-----------------|
B|--------------------3------0------3----------------------3-----------------|
G|----------0h2----------------------------------0---------2-----------------|
D|------0---------0------0------0------0------0-----0------------------------|
A|---------------------------------------------------------------------------|
E|---------------------------------------------------------------------------|


************************************

| /   slide up
| \   slide down
| h   hammer-on
| p   pull-off
| ~   vibrato
| +   harmonic
| x   Mute note
| b   Bend
| pb  Pre-bend
| br  Bend release
| pbr Pre-bend release
| brb Bend release bend

************************************
Добавлено: 21.06.2016
Другие материалы по этой песне:
  • Аккорды и текст

Страница создана 21.06.2016
http://primanota.ru/joe-purdy/riverboat-captain-chords.htm
Привет, Гость.
Предлагаем пройти революционный курс по гитаре.
Подарок от PrimaNota.Ru, забирай!